ISO-10303-21;
HEADER;
/* Generated by software containing ST-Developer
 * from STEP Tools, Inc. (www.steptools.com) 
 */
/* OPTION: strings as raw bytes, not using required /X/ escapes */

FILE_DESCRIPTION(
/* description */ ('Unknown'),
/* implementation_level */ '2;1');

FILE_NAME(
/* name */ 'SN A 6201',
/* time_stamp */ '2023-12-13T12:44:29+01:00',
/* author */ ('Unknown'),
/* organization */ ('Unknown'),
/* preprocessor_version */ 'ST-DEVELOPER v18.102',
/* originating_system */ 'Solid Edge',
/* authorisation */ 'Unknown');

FILE_SCHEMA (('AUTOMOTIVE_DESIGN {1 0 10303 214 3 1 1}'));
ENDSEC;

DATA;
#10=PROPERTY_DEFINITION_REPRESENTATION(#14,#12);
#11=PROPERTY_DEFINITION_REPRESENTATION(#15,#13);
#12=REPRESENTATION('',(#16),#248);
#13=REPRESENTATION('',(#17),#248);
#14=PROPERTY_DEFINITION('pmi validation property','',#253);
#15=PROPERTY_DEFINITION('pmi validation property','',#253);
#16=VALUE_REPRESENTATION_ITEM('number of annotations',COUNT_MEASURE(0.));
#17=VALUE_REPRESENTATION_ITEM('number of views',COUNT_MEASURE(0.));
#18=SHAPE_REPRESENTATION_RELATIONSHIP('','',#162,#19);
#19=ADVANCED_BREP_SHAPE_REPRESENTATION('',(#160),#248);
#20=ORIENTED_EDGE('',*,*,#54,.F.);
#21=ORIENTED_EDGE('',*,*,#55,.T.);
#22=ORIENTED_EDGE('',*,*,#56,.T.);
#23=ORIENTED_EDGE('',*,*,#57,.F.);
#24=ORIENTED_EDGE('',*,*,#58,.F.);
#25=ORIENTED_EDGE('',*,*,#59,.T.);
#26=ORIENTED_EDGE('',*,*,#54,.T.);
#27=ORIENTED_EDGE('',*,*,#60,.T.);
#28=ORIENTED_EDGE('',*,*,#61,.F.);
#29=ORIENTED_EDGE('',*,*,#58,.T.);
#30=ORIENTED_EDGE('',*,*,#62,.F.);
#31=ORIENTED_EDGE('',*,*,#63,.F.);
#32=ORIENTED_EDGE('',*,*,#64,.F.);
#33=ORIENTED_EDGE('',*,*,#63,.T.);
#34=ORIENTED_EDGE('',*,*,#65,.T.);
#35=ORIENTED_EDGE('',*,*,#66,.T.);
#36=ORIENTED_EDGE('',*,*,#56,.F.);
#37=ORIENTED_EDGE('',*,*,#67,.T.);
#38=ORIENTED_EDGE('',*,*,#66,.F.);
#39=ORIENTED_EDGE('',*,*,#68,.T.);
#40=ORIENTED_EDGE('',*,*,#69,.T.);
#41=ORIENTED_EDGE('',*,*,#57,.T.);
#42=ORIENTED_EDGE('',*,*,#68,.F.);
#43=ORIENTED_EDGE('',*,*,#65,.F.);
#44=ORIENTED_EDGE('',*,*,#70,.T.);
#45=ORIENTED_EDGE('',*,*,#64,.T.);
#46=ORIENTED_EDGE('',*,*,#67,.F.);
#47=ORIENTED_EDGE('',*,*,#55,.F.);
#48=ORIENTED_EDGE('',*,*,#69,.F.);
#49=ORIENTED_EDGE('',*,*,#62,.T.);
#50=ORIENTED_EDGE('',*,*,#60,.F.);
#51=ORIENTED_EDGE('',*,*,#61,.T.);
#52=ORIENTED_EDGE('',*,*,#70,.F.);
#53=ORIENTED_EDGE('',*,*,#59,.F.);
#54=EDGE_CURVE('',#71,#72,#81,.T.);
#55=EDGE_CURVE('',#71,#73,#82,.T.);
#56=EDGE_CURVE('',#73,#74,#83,.T.);
#57=EDGE_CURVE('',#72,#74,#84,.T.);
#58=EDGE_CURVE('',#75,#76,#85,.T.);
#59=EDGE_CURVE('',#75,#71,#86,.T.);
#60=EDGE_CURVE('',#72,#76,#87,.T.);
#61=EDGE_CURVE('',#75,#77,#88,.T.);
#62=EDGE_CURVE('',#78,#76,#89,.T.);
#63=EDGE_CURVE('',#77,#78,#90,.T.);
#64=EDGE_CURVE('',#77,#79,#91,.T.);
#65=EDGE_CURVE('',#78,#80,#92,.T.);
#66=EDGE_CURVE('',#80,#79,#93,.T.);
#67=EDGE_CURVE('',#73,#79,#94,.T.);
#68=EDGE_CURVE('',#80,#74,#95,.T.);
#69=EDGE_CURVE('',#78,#72,#96,.T.);
#70=EDGE_CURVE('',#71,#77,#97,.T.);
#71=VERTEX_POINT('',#213);
#72=VERTEX_POINT('',#214);
#73=VERTEX_POINT('',#216);
#74=VERTEX_POINT('',#218);
#75=VERTEX_POINT('',#222);
#76=VERTEX_POINT('',#223);
#77=VERTEX_POINT('',#228);
#78=VERTEX_POINT('',#230);
#79=VERTEX_POINT('',#234);
#80=VERTEX_POINT('',#236);
#81=LINE('',#212,#98);
#82=LINE('',#215,#99);
#83=LINE('',#217,#100);
#84=LINE('',#219,#101);
#85=LINE('',#221,#102);
#86=LINE('',#224,#103);
#87=LINE('',#225,#104);
#88=LINE('',#227,#105);
#89=LINE('',#229,#106);
#90=LINE('',#231,#107);
#91=LINE('',#233,#108);
#92=LINE('',#235,#109);
#93=LINE('',#237,#110);
#94=LINE('',#239,#111);
#95=LINE('',#240,#112);
#96=LINE('',#242,#113);
#97=LINE('',#244,#114);
#98=VECTOR('',#177,1000.);
#99=VECTOR('',#178,1000.);
#100=VECTOR('',#179,1000.);
#101=VECTOR('',#180,1000.);
#102=VECTOR('',#183,1000.);
#103=VECTOR('',#184,1000.);
#104=VECTOR('',#185,1000.);
#105=VECTOR('',#188,1000.);
#106=VECTOR('',#189,1000.);
#107=VECTOR('',#190,1000.);
#108=VECTOR('',#193,1000.);
#109=VECTOR('',#194,1000.);
#110=VECTOR('',#195,1000.);
#111=VECTOR('',#198,1000.);
#112=VECTOR('',#199,1000.);
#113=VECTOR('',#202,1000.);
#114=VECTOR('',#205,1000.);
#115=EDGE_LOOP('',(#20,#21,#22,#23));
#116=EDGE_LOOP('',(#24,#25,#26,#27));
#117=EDGE_LOOP('',(#28,#29,#30,#31));
#118=EDGE_LOOP('',(#32,#33,#34,#35));
#119=EDGE_LOOP('',(#36,#37,#38,#39));
#120=EDGE_LOOP('',(#40,#41,#42,#43));
#121=EDGE_LOOP('',(#44,#45,#46,#47));
#122=EDGE_LOOP('',(#48,#49,#50));
#123=EDGE_LOOP('',(#51,#52,#53));
#124=FACE_BOUND('',#115,.T.);
#125=FACE_BOUND('',#116,.T.);
#126=FACE_BOUND('',#117,.T.);
#127=FACE_BOUND('',#118,.T.);
#128=FACE_BOUND('',#119,.T.);
#129=FACE_BOUND('',#120,.T.);
#130=FACE_BOUND('',#121,.T.);
#131=FACE_BOUND('',#122,.T.);
#132=FACE_BOUND('',#123,.T.);
#133=PLANE('',#164);
#134=PLANE('',#165);
#135=PLANE('',#166);
#136=PLANE('',#167);
#137=PLANE('',#168);
#138=PLANE('',#169);
#139=PLANE('',#170);
#140=PLANE('',#171);
#141=PLANE('',#172);
#142=ADVANCED_FACE('',(#124),#133,.F.);
#143=ADVANCED_FACE('',(#125),#134,.F.);
#144=ADVANCED_FACE('',(#126),#135,.T.);
#145=ADVANCED_FACE('',(#127),#136,.F.);
#146=ADVANCED_FACE('',(#128),#137,.F.);
#147=ADVANCED_FACE('',(#129),#138,.T.);
#148=ADVANCED_FACE('',(#130),#139,.T.);
#149=ADVANCED_FACE('',(#131),#140,.F.);
#150=ADVANCED_FACE('',(#132),#141,.F.);
#151=CLOSED_SHELL('',(#142,#143,#144,#145,#146,#147,#148,#149,#150));
#152=STYLED_ITEM('',(#153),#160);
#153=PRESENTATION_STYLE_ASSIGNMENT((#154));
#154=SURFACE_STYLE_USAGE(.BOTH.,#155);
#155=SURFACE_SIDE_STYLE('',(#156));
#156=SURFACE_STYLE_FILL_AREA(#157);
#157=FILL_AREA_STYLE('',(#158));
#158=FILL_AREA_STYLE_COLOUR('',#159);
#159=COLOUR_RGB('',0.506983280181885,0.531564235687256,0.550000011920929);
#160=MANIFOLD_SOLID_BREP('',#151);
#161=SHAPE_DEFINITION_REPRESENTATION(#253,#162);
#162=SHAPE_REPRESENTATION('Part1',(#163),#248);
#163=AXIS2_PLACEMENT_3D('',#210,#173,#174);
#164=AXIS2_PLACEMENT_3D('',#211,#175,#176);
#165=AXIS2_PLACEMENT_3D('',#220,#181,#182);
#166=AXIS2_PLACEMENT_3D('',#226,#186,#187);
#167=AXIS2_PLACEMENT_3D('',#232,#191,#192);
#168=AXIS2_PLACEMENT_3D('',#238,#196,#197);
#169=AXIS2_PLACEMENT_3D('',#241,#200,#201);
#170=AXIS2_PLACEMENT_3D('',#243,#203,#204);
#171=AXIS2_PLACEMENT_3D('',#245,#206,#207);
#172=AXIS2_PLACEMENT_3D('',#246,#208,#209);
#173=DIRECTION('',(0.,0.,1.));
#174=DIRECTION('',(1.,0.,0.));
#175=DIRECTION('',(1.,-5.25673780599032E-17,0.));
#176=DIRECTION('',(5.25673780599032E-17,1.,0.));
#177=DIRECTION('',(0.,-1.,0.));
#178=DIRECTION('',(0.,0.,-1.));
#179=DIRECTION('',(-5.25673780599032E-17,-1.,0.));
#180=DIRECTION('',(0.,0.,-1.));
#181=DIRECTION('',(0.324997939259516,0.,-0.945714724151564));
#182=DIRECTION('',(-0.945714724151564,0.,-0.324997939259516));
#183=DIRECTION('',(0.,-1.,0.));
#184=DIRECTION('',(-0.94571466721209,-0.000347009720361233,-0.324997919692081));
#185=DIRECTION('',(0.945714668278159,-0.000343745865627191,0.324997920058439));
#186=DIRECTION('',(0.926739268223405,0.,0.375705108739218));
#187=DIRECTION('',(0.375705108739218,0.,-0.926739268223405));
#188=DIRECTION('',(0.356463934106201,0.315917999968052,-0.87927770412863));
#189=DIRECTION('',(-0.356462939684549,0.315925948950278,0.879275251221889));
#190=DIRECTION('',(0.,-1.,0.));
#191=DIRECTION('',(-1.,0.,0.));
#192=DIRECTION('',(0.,0.,1.));
#193=DIRECTION('',(0.,0.,-1.));
#194=DIRECTION('',(0.,0.,-1.));
#195=DIRECTION('',(0.,1.,0.));
#196=DIRECTION('',(0.,0.,1.));
#197=DIRECTION('',(1.,0.,0.));
#198=DIRECTION('',(0.994144463069457,0.108059180768419,0.));
#199=DIRECTION('',(-0.994144463069457,0.108059180768419,0.));
#200=DIRECTION('',(-0.108059180768419,-0.994144463069457,0.));
#201=DIRECTION('',(0.994144463069457,-0.108059180768419,0.));
#202=DIRECTION('',(-0.994144463069456,0.108059180768419,-9.85189711760107E-18));
#203=DIRECTION('',(-0.108059180768419,0.994144463069457,0.));
#204=DIRECTION('',(-0.994144463069457,-0.108059180768419,0.));
#205=DIRECTION('',(0.994144463069457,0.108059180768419,-2.77380052938932E-16));
#206=DIRECTION('',(0.103114134382242,0.948650036316623,-0.299049467291065));
#207=DIRECTION('',(-0.994144463069456,0.108059180768419,2.08166817117217E-17));
#208=DIRECTION('',(0.103114428155656,-0.948652739032036,-0.299040792256087));
#209=DIRECTION('',(0.994144463069457,0.108059180768419,-3.46944695195361E-17));
#210=CARTESIAN_POINT('',(0.,0.,0.));
#211=CARTESIAN_POINT('',(-91.9999999999999,132.,83.));
#212=CARTESIAN_POINT('',(-92.,132.,27.5));
#213=CARTESIAN_POINT('',(-91.9999999999999,112.,27.5));
#214=CARTESIAN_POINT('',(-92.,-112.,27.5));
#215=CARTESIAN_POINT('',(-91.9999999999999,112.,144.892161050728));
#216=CARTESIAN_POINT('',(-91.9999999999999,112.,0.));
#217=CARTESIAN_POINT('',(-91.9999999999999,132.,0.));
#218=CARTESIAN_POINT('',(-92.,-112.,0.));
#219=CARTESIAN_POINT('',(-92.,-112.,144.892161050728));
#220=CARTESIAN_POINT('',(-92.,132.,27.5));
#221=CARTESIAN_POINT('',(69.4999999999999,52.,83.));
#222=CARTESIAN_POINT('',(69.5,112.059258962329,83.));
#223=CARTESIAN_POINT('',(69.4999999999999,-112.058701592733,83.));
#224=CARTESIAN_POINT('',(-91.9934365563557,112.000002408315,27.5022555487446));
#225=CARTESIAN_POINT('',(-92.0793208637772,-111.999971168662,27.4727411273088));
#226=CARTESIAN_POINT('',(91.9999999999999,52.,27.5));
#227=CARTESIAN_POINT('',(82.990930150114,124.015665383695,49.7223722963854));
#228=CARTESIAN_POINT('',(91.9999999999999,132.,27.4999999999999));
#229=CARTESIAN_POINT('',(71.2786757826777,-113.635106239495,78.6125997360616));
#230=CARTESIAN_POINT('',(91.9999999999999,-132.,27.5));
#231=CARTESIAN_POINT('',(91.9999999999999,52.,27.5));
#232=CARTESIAN_POINT('',(91.9999999999999,-132.,83.));
#233=CARTESIAN_POINT('',(91.9999999999999,132.,83.));
#234=CARTESIAN_POINT('',(92.,132.,0.));
#235=CARTESIAN_POINT('',(91.9999999999999,-132.,83.));
#236=CARTESIAN_POINT('',(91.9999999999999,-132.,0.));
#237=CARTESIAN_POINT('',(91.9999999999999,-132.,0.));
#238=CARTESIAN_POINT('',(0.,0.,0.));
#239=CARTESIAN_POINT('',(92.,132.,0.));
#240=CARTESIAN_POINT('',(91.9999999999999,-132.,0.));
#241=CARTESIAN_POINT('',(91.9999999999999,-132.,144.892161050728));
#242=CARTESIAN_POINT('',(-91.9999999999999,-112.,27.5));
#243=CARTESIAN_POINT('',(92.,132.,144.892161050728));
#244=CARTESIAN_POINT('',(-91.9999999999999,112.,27.5));
#245=CARTESIAN_POINT('',(-13.9946888340883,-128.751137273613,1.2584657282505));
#246=CARTESIAN_POINT('',(-13.9946630551161,128.750900107068,1.25839096580238));
#247=MECHANICAL_DESIGN_GEOMETRIC_PRESENTATION_REPRESENTATION('',(#152),
#248);
#248=(
GEOMETRIC_REPRESENTATION_CONTEXT(3)
GLOBAL_UNCERTAINTY_ASSIGNED_CONTEXT((#249))
GLOBAL_UNIT_ASSIGNED_CONTEXT((#252,#251,#250))
REPRESENTATION_CONTEXT('Part1','TOP_LEVEL_ASSEMBLY_PART')
);
#249=UNCERTAINTY_MEASURE_WITH_UNIT(LENGTH_MEASURE(0.005),#252,
'DISTANCE_ACCURACY_VALUE','Maximum Tolerance applied to model');
#250=(
NAMED_UNIT(*)
SI_UNIT($,.STERADIAN.)
SOLID_ANGLE_UNIT()
);
#251=(
NAMED_UNIT(*)
PLANE_ANGLE_UNIT()
SI_UNIT($,.RADIAN.)
);
#252=(
LENGTH_UNIT()
NAMED_UNIT(*)
SI_UNIT(.MILLI.,.METRE.)
);
#253=PRODUCT_DEFINITION_SHAPE('','',#254);
#254=PRODUCT_DEFINITION('','',#256,#255);
#255=PRODUCT_DEFINITION_CONTEXT('',#262,'design');
#256=PRODUCT_DEFINITION_FORMATION_WITH_SPECIFIED_SOURCE('','',#258,
 .NOT_KNOWN.);
#257=PRODUCT_RELATED_PRODUCT_CATEGORY('','',(#258));
#258=PRODUCT('Part1','Part1','Part1',(#260));
#259=PRODUCT_CATEGORY('','');
#260=PRODUCT_CONTEXT('',#262,'mechanical');
#261=APPLICATION_PROTOCOL_DEFINITION('international standard',
'automotive_design',2010,#262);
#262=APPLICATION_CONTEXT(
'core data for automotive mechanical design processes');
ENDSEC;
END-ISO-10303-21;
