ISO-10303-21;
HEADER;
/* Generated by software containing ST-Developer
 * from STEP Tools, Inc. (www.steptools.com) 
 */
/* OPTION: strings as raw bytes, not using required /X/ escapes */

FILE_DESCRIPTION(
/* description */ ('Unknown'),
/* implementation_level */ '2;1');

FILE_NAME(
/* name */ 'SNP 2130 LED 230V',
/* time_stamp */ '2018-04-12T10:59:54+02:00',
/* author */ ('Unknown'),
/* organization */ ('Unknown'),
/* preprocessor_version */ 'ST-DEVELOPER v16.7',
/* originating_system */ 'DEX',
/* authorisation */ $);

FILE_SCHEMA (('AUTOMOTIVE_DESIGN {1 0 10303 214 3 1 1}'));
ENDSEC;

DATA;
#10=PROPERTY_DEFINITION_REPRESENTATION(#14,#12);
#11=PROPERTY_DEFINITION_REPRESENTATION(#15,#13);
#12=REPRESENTATION('',(#16),#556);
#13=REPRESENTATION('',(#17),#556);
#14=PROPERTY_DEFINITION('pmi validation property','',#561);
#15=PROPERTY_DEFINITION('pmi validation property','',#561);
#16=VALUE_REPRESENTATION_ITEM('number of annotations',COUNT_MEASURE(0.));
#17=VALUE_REPRESENTATION_ITEM('number of views',COUNT_MEASURE(0.));
#18=SHAPE_REPRESENTATION_RELATIONSHIP('','',#328,#19);
#19=ADVANCED_BREP_SHAPE_REPRESENTATION('',(#326),#556);
#20=SPHERICAL_SURFACE('',#345,2.);
#21=SPHERICAL_SURFACE('',#356,2.);
#22=SPHERICAL_SURFACE('',#358,2.);
#23=SPHERICAL_SURFACE('',#364,2.);
#24=CIRCLE('',#344,2.);
#25=CIRCLE('',#346,2.);
#26=CIRCLE('',#347,2.);
#27=CIRCLE('',#349,2.);
#28=CIRCLE('',#351,2.);
#29=CIRCLE('',#353,2.);
#30=CIRCLE('',#355,2.);
#31=CIRCLE('',#357,2.);
#32=CIRCLE('',#359,2.);
#33=CIRCLE('',#361,2.);
#34=CIRCLE('',#363,2.);
#35=CIRCLE('',#365,2.);
#36=CYLINDRICAL_SURFACE('',#343,2.);
#37=CYLINDRICAL_SURFACE('',#348,2.);
#38=CYLINDRICAL_SURFACE('',#350,2.);
#39=CYLINDRICAL_SURFACE('',#352,2.);
#40=CYLINDRICAL_SURFACE('',#354,2.);
#41=CYLINDRICAL_SURFACE('',#360,2.);
#42=CYLINDRICAL_SURFACE('',#362,2.);
#43=CYLINDRICAL_SURFACE('',#366,2.);
#44=ELLIPSE('',#336,2.00975572451696,2.);
#45=ELLIPSE('',#337,2.00975572451696,2.);
#46=ELLIPSE('',#338,2.00975572451696,2.);
#47=ELLIPSE('',#339,2.00975572451696,2.);
#48=ELLIPSE('',#341,28.7408458738333,2.);
#49=ORIENTED_EDGE('',*,*,#133,.T.);
#50=ORIENTED_EDGE('',*,*,#134,.T.);
#51=ORIENTED_EDGE('',*,*,#135,.T.);
#52=ORIENTED_EDGE('',*,*,#136,.T.);
#53=ORIENTED_EDGE('',*,*,#137,.T.);
#54=ORIENTED_EDGE('',*,*,#138,.T.);
#55=ORIENTED_EDGE('',*,*,#139,.T.);
#56=ORIENTED_EDGE('',*,*,#140,.T.);
#57=ORIENTED_EDGE('',*,*,#141,.T.);
#58=ORIENTED_EDGE('',*,*,#142,.T.);
#59=ORIENTED_EDGE('',*,*,#143,.T.);
#60=ORIENTED_EDGE('',*,*,#144,.T.);
#61=ORIENTED_EDGE('',*,*,#145,.F.);
#62=ORIENTED_EDGE('',*,*,#146,.F.);
#63=ORIENTED_EDGE('',*,*,#147,.T.);
#64=ORIENTED_EDGE('',*,*,#148,.T.);
#65=ORIENTED_EDGE('',*,*,#146,.T.);
#66=ORIENTED_EDGE('',*,*,#149,.T.);
#67=ORIENTED_EDGE('',*,*,#150,.T.);
#68=ORIENTED_EDGE('',*,*,#151,.T.);
#69=ORIENTED_EDGE('',*,*,#152,.T.);
#70=ORIENTED_EDGE('',*,*,#151,.F.);
#71=ORIENTED_EDGE('',*,*,#153,.T.);
#72=ORIENTED_EDGE('',*,*,#141,.F.);
#73=ORIENTED_EDGE('',*,*,#148,.F.);
#74=ORIENTED_EDGE('',*,*,#154,.T.);
#75=ORIENTED_EDGE('',*,*,#155,.T.);
#76=ORIENTED_EDGE('',*,*,#137,.F.);
#77=ORIENTED_EDGE('',*,*,#156,.T.);
#78=ORIENTED_EDGE('',*,*,#157,.T.);
#79=ORIENTED_EDGE('',*,*,#158,.T.);
#80=ORIENTED_EDGE('',*,*,#145,.T.);
#81=ORIENTED_EDGE('',*,*,#159,.T.);
#82=ORIENTED_EDGE('',*,*,#154,.F.);
#83=ORIENTED_EDGE('',*,*,#147,.F.);
#84=ORIENTED_EDGE('',*,*,#160,.T.);
#85=ORIENTED_EDGE('',*,*,#161,.T.);
#86=ORIENTED_EDGE('',*,*,#157,.F.);
#87=ORIENTED_EDGE('',*,*,#162,.T.);
#88=ORIENTED_EDGE('',*,*,#163,.F.);
#89=ORIENTED_EDGE('',*,*,#162,.F.);
#90=ORIENTED_EDGE('',*,*,#156,.F.);
#91=ORIENTED_EDGE('',*,*,#140,.F.);
#92=ORIENTED_EDGE('',*,*,#164,.F.);
#93=ORIENTED_EDGE('',*,*,#163,.T.);
#94=ORIENTED_EDGE('',*,*,#165,.F.);
#95=ORIENTED_EDGE('',*,*,#159,.F.);
#96=ORIENTED_EDGE('',*,*,#144,.F.);
#97=ORIENTED_EDGE('',*,*,#166,.F.);
#98=ORIENTED_EDGE('',*,*,#138,.F.);
#99=ORIENTED_EDGE('',*,*,#155,.F.);
#100=ORIENTED_EDGE('',*,*,#165,.T.);
#101=ORIENTED_EDGE('',*,*,#139,.F.);
#102=ORIENTED_EDGE('',*,*,#167,.F.);
#103=ORIENTED_EDGE('',*,*,#133,.F.);
#104=ORIENTED_EDGE('',*,*,#164,.T.);
#105=ORIENTED_EDGE('',*,*,#136,.F.);
#106=ORIENTED_EDGE('',*,*,#168,.F.);
#107=ORIENTED_EDGE('',*,*,#160,.F.);
#108=ORIENTED_EDGE('',*,*,#158,.F.);
#109=ORIENTED_EDGE('',*,*,#161,.F.);
#110=ORIENTED_EDGE('',*,*,#169,.F.);
#111=ORIENTED_EDGE('',*,*,#152,.F.);
#112=ORIENTED_EDGE('',*,*,#167,.T.);
#113=ORIENTED_EDGE('',*,*,#166,.T.);
#114=ORIENTED_EDGE('',*,*,#170,.F.);
#115=ORIENTED_EDGE('',*,*,#169,.T.);
#116=ORIENTED_EDGE('',*,*,#168,.T.);
#117=ORIENTED_EDGE('',*,*,#171,.F.);
#118=ORIENTED_EDGE('',*,*,#170,.T.);
#119=ORIENTED_EDGE('',*,*,#143,.F.);
#120=ORIENTED_EDGE('',*,*,#172,.F.);
#121=ORIENTED_EDGE('',*,*,#134,.F.);
#122=ORIENTED_EDGE('',*,*,#171,.T.);
#123=ORIENTED_EDGE('',*,*,#135,.F.);
#124=ORIENTED_EDGE('',*,*,#173,.F.);
#125=ORIENTED_EDGE('',*,*,#149,.F.);
#126=ORIENTED_EDGE('',*,*,#173,.T.);
#127=ORIENTED_EDGE('',*,*,#172,.T.);
#128=ORIENTED_EDGE('',*,*,#174,.F.);
#129=ORIENTED_EDGE('',*,*,#174,.T.);
#130=ORIENTED_EDGE('',*,*,#142,.F.);
#131=ORIENTED_EDGE('',*,*,#153,.F.);
#132=ORIENTED_EDGE('',*,*,#150,.F.);
#133=EDGE_CURVE('',#175,#176,#199,.F.);
#134=EDGE_CURVE('',#176,#177,#200,.F.);
#135=EDGE_CURVE('',#177,#178,#201,.T.);
#136=EDGE_CURVE('',#178,#175,#202,.F.);
#137=EDGE_CURVE('',#179,#180,#203,.T.);
#138=EDGE_CURVE('',#180,#181,#204,.F.);
#139=EDGE_CURVE('',#181,#182,#205,.T.);
#140=EDGE_CURVE('',#182,#179,#206,.T.);
#141=EDGE_CURVE('',#183,#184,#207,.T.);
#142=EDGE_CURVE('',#184,#185,#208,.F.);
#143=EDGE_CURVE('',#185,#186,#209,.T.);
#144=EDGE_CURVE('',#186,#187,#210,.T.);
#145=EDGE_CURVE('',#188,#187,#211,.T.);
#146=EDGE_CURVE('',#183,#188,#212,.T.);
#147=EDGE_CURVE('',#188,#189,#213,.T.);
#148=EDGE_CURVE('',#189,#183,#214,.T.);
#149=EDGE_CURVE('',#190,#191,#215,.F.);
#150=EDGE_CURVE('',#191,#192,#216,.T.);
#151=EDGE_CURVE('',#192,#193,#217,.T.);
#152=EDGE_CURVE('',#193,#190,#218,.F.);
#153=EDGE_CURVE('',#192,#184,#44,.F.);
#154=EDGE_CURVE('',#189,#194,#219,.T.);
#155=EDGE_CURVE('',#194,#180,#45,.F.);
#156=EDGE_CURVE('',#179,#195,#46,.F.);
#157=EDGE_CURVE('',#195,#196,#220,.T.);
#158=EDGE_CURVE('',#196,#193,#47,.F.);
#159=EDGE_CURVE('',#187,#194,#48,.T.);
#160=EDGE_CURVE('',#197,#198,#221,.T.);
#161=EDGE_CURVE('',#198,#196,#222,.T.);
#162=EDGE_CURVE('',#195,#197,#223,.F.);
#163=EDGE_CURVE('',#197,#182,#24,.T.);
#164=EDGE_CURVE('',#197,#175,#25,.F.);
#165=EDGE_CURVE('',#175,#182,#26,.F.);
#166=EDGE_CURVE('',#181,#186,#27,.T.);
#167=EDGE_CURVE('',#176,#181,#28,.T.);
#168=EDGE_CURVE('',#198,#178,#29,.T.);
#169=EDGE_CURVE('',#190,#198,#30,.T.);
#170=EDGE_CURVE('',#176,#186,#31,.F.);
#171=EDGE_CURVE('',#190,#178,#32,.F.);
#172=EDGE_CURVE('',#177,#185,#33,.T.);
#173=EDGE_CURVE('',#191,#177,#34,.T.);
#174=EDGE_CURVE('',#191,#185,#35,.F.);
#175=VERTEX_POINT('',#471);
#176=VERTEX_POINT('',#472);
#177=VERTEX_POINT('',#474);
#178=VERTEX_POINT('',#476);
#179=VERTEX_POINT('',#480);
#180=VERTEX_POINT('',#481);
#181=VERTEX_POINT('',#483);
#182=VERTEX_POINT('',#485);
#183=VERTEX_POINT('',#489);
#184=VERTEX_POINT('',#490);
#185=VERTEX_POINT('',#492);
#186=VERTEX_POINT('',#494);
#187=VERTEX_POINT('',#496);
#188=VERTEX_POINT('',#498);
#189=VERTEX_POINT('',#502);
#190=VERTEX_POINT('',#506);
#191=VERTEX_POINT('',#507);
#192=VERTEX_POINT('',#509);
#193=VERTEX_POINT('',#511);
#194=VERTEX_POINT('',#516);
#195=VERTEX_POINT('',#519);
#196=VERTEX_POINT('',#521);
#197=VERTEX_POINT('',#527);
#198=VERTEX_POINT('',#528);
#199=LINE('',#470,#224);
#200=LINE('',#473,#225);
#201=LINE('',#475,#226);
#202=LINE('',#477,#227);
#203=LINE('',#479,#228);
#204=LINE('',#482,#229);
#205=LINE('',#484,#230);
#206=LINE('',#486,#231);
#207=LINE('',#488,#232);
#208=LINE('',#491,#233);
#209=LINE('',#493,#234);
#210=LINE('',#495,#235);
#211=LINE('',#497,#236);
#212=LINE('',#499,#237);
#213=LINE('',#501,#238);
#214=LINE('',#503,#239);
#215=LINE('',#505,#240);
#216=LINE('',#508,#241);
#217=LINE('',#510,#242);
#218=LINE('',#512,#243);
#219=LINE('',#515,#244);
#220=LINE('',#520,#245);
#221=LINE('',#526,#246);
#222=LINE('',#529,#247);
#223=LINE('',#530,#248);
#224=VECTOR('',#371,1000.);
#225=VECTOR('',#372,1000.);
#226=VECTOR('',#373,1000.);
#227=VECTOR('',#374,1000.);
#228=VECTOR('',#377,1000.);
#229=VECTOR('',#378,1000.);
#230=VECTOR('',#379,1000.);
#231=VECTOR('',#380,1000.);
#232=VECTOR('',#383,1000.);
#233=VECTOR('',#384,1000.);
#234=VECTOR('',#385,1000.);
#235=VECTOR('',#386,1000.);
#236=VECTOR('',#387,1000.);
#237=VECTOR('',#388,1000.);
#238=VECTOR('',#391,1000.);
#239=VECTOR('',#392,1000.);
#240=VECTOR('',#395,1000.);
#241=VECTOR('',#396,1000.);
#242=VECTOR('',#397,1000.);
#243=VECTOR('',#398,1000.);
#244=VECTOR('',#403,1000.);
#245=VECTOR('',#408,1000.);
#246=VECTOR('',#417,1000.);
#247=VECTOR('',#418,1000.);
#248=VECTOR('',#419,1000.);
#249=EDGE_LOOP('',(#49,#50,#51,#52));
#250=EDGE_LOOP('',(#53,#54,#55,#56));
#251=EDGE_LOOP('',(#57,#58,#59,#60,#61,#62));
#252=EDGE_LOOP('',(#63,#64,#65));
#253=EDGE_LOOP('',(#66,#67,#68,#69));
#254=EDGE_LOOP('',(#70,#71,#72,#73,#74,#75,#76,#77,#78,#79));
#255=EDGE_LOOP('',(#80,#81,#82,#83));
#256=EDGE_LOOP('',(#84,#85,#86,#87));
#257=EDGE_LOOP('',(#88,#89,#90,#91));
#258=EDGE_LOOP('',(#92,#93,#94));
#259=EDGE_LOOP('',(#95,#96,#97,#98,#99));
#260=EDGE_LOOP('',(#100,#101,#102,#103));
#261=EDGE_LOOP('',(#104,#105,#106,#107));
#262=EDGE_LOOP('',(#108,#109,#110,#111));
#263=EDGE_LOOP('',(#112,#113,#114));
#264=EDGE_LOOP('',(#115,#116,#117));
#265=EDGE_LOOP('',(#118,#119,#120,#121));
#266=EDGE_LOOP('',(#122,#123,#124,#125));
#267=EDGE_LOOP('',(#126,#127,#128));
#268=EDGE_LOOP('',(#129,#130,#131,#132));
#269=FACE_BOUND('',#249,.T.);
#270=FACE_BOUND('',#250,.T.);
#271=FACE_BOUND('',#251,.T.);
#272=FACE_BOUND('',#252,.T.);
#273=FACE_BOUND('',#253,.T.);
#274=FACE_BOUND('',#254,.T.);
#275=FACE_BOUND('',#255,.T.);
#276=FACE_BOUND('',#256,.T.);
#277=FACE_BOUND('',#257,.T.);
#278=FACE_BOUND('',#258,.T.);
#279=FACE_BOUND('',#259,.T.);
#280=FACE_BOUND('',#260,.T.);
#281=FACE_BOUND('',#261,.T.);
#282=FACE_BOUND('',#262,.T.);
#283=FACE_BOUND('',#263,.T.);
#284=FACE_BOUND('',#264,.T.);
#285=FACE_BOUND('',#265,.T.);
#286=FACE_BOUND('',#266,.T.);
#287=FACE_BOUND('',#267,.T.);
#288=FACE_BOUND('',#268,.T.);
#289=PLANE('',#330);
#290=PLANE('',#331);
#291=PLANE('',#332);
#292=PLANE('',#333);
#293=PLANE('',#334);
#294=PLANE('',#335);
#295=PLANE('',#340);
#296=PLANE('',#342);
#297=ADVANCED_FACE('',(#269),#289,.T.);
#298=ADVANCED_FACE('',(#270),#290,.T.);
#299=ADVANCED_FACE('',(#271),#291,.T.);
#300=ADVANCED_FACE('',(#272),#292,.T.);
#301=ADVANCED_FACE('',(#273),#293,.T.);
#302=ADVANCED_FACE('',(#274),#294,.F.);
#303=ADVANCED_FACE('',(#275),#295,.F.);
#304=ADVANCED_FACE('',(#276),#296,.T.);
#305=ADVANCED_FACE('',(#277),#36,.T.);
#306=ADVANCED_FACE('',(#278),#20,.T.);
#307=ADVANCED_FACE('',(#279),#37,.T.);
#308=ADVANCED_FACE('',(#280),#38,.T.);
#309=ADVANCED_FACE('',(#281),#39,.T.);
#310=ADVANCED_FACE('',(#282),#40,.T.);
#311=ADVANCED_FACE('',(#283),#21,.T.);
#312=ADVANCED_FACE('',(#284),#22,.T.);
#313=ADVANCED_FACE('',(#285),#41,.T.);
#314=ADVANCED_FACE('',(#286),#42,.T.);
#315=ADVANCED_FACE('',(#287),#23,.T.);
#316=ADVANCED_FACE('',(#288),#43,.T.);
#317=CLOSED_SHELL('',(#297,#298,#299,#300,#301,#302,#303,#304,#305,#306,
#307,#308,#309,#310,#311,#312,#313,#314,#315,#316));
#318=STYLED_ITEM('',(#319),#326);
#319=PRESENTATION_STYLE_ASSIGNMENT((#320));
#320=SURFACE_STYLE_USAGE(.BOTH.,#321);
#321=SURFACE_SIDE_STYLE('',(#322));
#322=SURFACE_STYLE_FILL_AREA(#323);
#323=FILL_AREA_STYLE('',(#324));
#324=FILL_AREA_STYLE_COLOUR('',#325);
#325=COLOUR_RGB('',0.506983280181885,0.531564235687256,0.550000011920929);
#326=MANIFOLD_SOLID_BREP('',#317);
#327=SHAPE_DEFINITION_REPRESENTATION(#561,#328);
#328=SHAPE_REPRESENTATION('SNP 2130 LED 230V',(#329),#556);
#329=AXIS2_PLACEMENT_3D('',#468,#367,#368);
#330=AXIS2_PLACEMENT_3D('',#469,#369,#370);
#331=AXIS2_PLACEMENT_3D('',#478,#375,#376);
#332=AXIS2_PLACEMENT_3D('',#487,#381,#382);
#333=AXIS2_PLACEMENT_3D('',#500,#389,#390);
#334=AXIS2_PLACEMENT_3D('',#504,#393,#394);
#335=AXIS2_PLACEMENT_3D('',#513,#399,#400);
#336=AXIS2_PLACEMENT_3D('',#514,#401,#402);
#337=AXIS2_PLACEMENT_3D('',#517,#404,#405);
#338=AXIS2_PLACEMENT_3D('',#518,#406,#407);
#339=AXIS2_PLACEMENT_3D('',#522,#409,#410);
#340=AXIS2_PLACEMENT_3D('',#523,#411,#412);
#341=AXIS2_PLACEMENT_3D('',#524,#413,#414);
#342=AXIS2_PLACEMENT_3D('',#525,#415,#416);
#343=AXIS2_PLACEMENT_3D('',#531,#420,#421);
#344=AXIS2_PLACEMENT_3D('',#532,#422,#423);
#345=AXIS2_PLACEMENT_3D('',#533,#424,#425);
#346=AXIS2_PLACEMENT_3D('',#534,#426,#427);
#347=AXIS2_PLACEMENT_3D('',#535,#428,#429);
#348=AXIS2_PLACEMENT_3D('',#536,#430,#431);
#349=AXIS2_PLACEMENT_3D('',#537,#432,#433);
#350=AXIS2_PLACEMENT_3D('',#538,#434,#435);
#351=AXIS2_PLACEMENT_3D('',#539,#436,#437);
#352=AXIS2_PLACEMENT_3D('',#540,#438,#439);
#353=AXIS2_PLACEMENT_3D('',#541,#440,#441);
#354=AXIS2_PLACEMENT_3D('',#542,#442,#443);
#355=AXIS2_PLACEMENT_3D('',#543,#444,#445);
#356=AXIS2_PLACEMENT_3D('',#544,#446,#447);
#357=AXIS2_PLACEMENT_3D('',#545,#448,#449);
#358=AXIS2_PLACEMENT_3D('',#546,#450,#451);
#359=AXIS2_PLACEMENT_3D('',#547,#452,#453);
#360=AXIS2_PLACEMENT_3D('',#548,#454,#455);
#361=AXIS2_PLACEMENT_3D('',#549,#456,#457);
#362=AXIS2_PLACEMENT_3D('',#550,#458,#459);
#363=AXIS2_PLACEMENT_3D('',#551,#460,#461);
#364=AXIS2_PLACEMENT_3D('',#552,#462,#463);
#365=AXIS2_PLACEMENT_3D('',#553,#464,#465);
#366=AXIS2_PLACEMENT_3D('',#554,#466,#467);
#367=DIRECTION('',(0.,0.,1.));
#368=DIRECTION('',(1.,0.,0.));
#369=DIRECTION('',(0.,-1.,0.));
#370=DIRECTION('',(0.,0.,-1.));
#371=DIRECTION('',(0.,0.,-1.));
#372=DIRECTION('',(1.,0.,0.));
#373=DIRECTION('',(0.,0.,-1.));
#374=DIRECTION('',(-1.,0.,3.49354604962435E-17));
#375=DIRECTION('',(0.997564050259824,-0.0697564737441256,0.));
#376=DIRECTION('',(0.0697564737441256,0.997564050259824,0.));
#377=DIRECTION('',(0.,0.,1.));
#378=DIRECTION('',(0.069587374316665,0.995145815783509,0.0695873743166646));
#379=DIRECTION('',(0.,0.,-1.));
#380=DIRECTION('',(0.069587374316665,0.995145815783509,-0.0695873743166649));
#381=DIRECTION('',(0.,-0.0697564737441252,0.997564050259824));
#382=DIRECTION('',(0.,-0.997564050259824,-0.0697564737441252));
#383=DIRECTION('',(-1.,0.,0.));
#384=DIRECTION('',(-0.0695873743166653,0.995145815783509,0.0695873743166646));
#385=DIRECTION('',(1.,0.,0.));
#386=DIRECTION('',(0.069587374316665,0.995145815783509,0.0695873743166646));
#387=DIRECTION('',(-1.,0.,0.));
#388=DIRECTION('',(0.,-0.997564050259824,-0.0697564737441252));
#389=DIRECTION('',(1.,0.,0.));
#390=DIRECTION('',(0.,0.,-1.));
#391=DIRECTION('',(0.,1.,0.));
#392=DIRECTION('',(0.,0.,1.));
#393=DIRECTION('',(-0.997564050259824,-0.069756473744126,0.));
#394=DIRECTION('',(0.069756473744126,-0.997564050259824,0.));
#395=DIRECTION('',(0.,0.,-1.));
#396=DIRECTION('',(-0.0695873743166653,0.995145815783508,0.0695873743166646));
#397=DIRECTION('',(0.,0.,-1.));
#398=DIRECTION('',(-0.0695873743166653,0.995145815783508,-0.0695873743166649));
#399=DIRECTION('',(0.,-1.,0.));
#400=DIRECTION('',(0.,0.,-1.));
#401=DIRECTION('',(0.,-1.,0.));
#402=DIRECTION('',(-0.707106781186551,0.,0.707106781186544));
#403=DIRECTION('',(-1.,0.,0.));
#404=DIRECTION('',(0.,-1.,0.));
#405=DIRECTION('',(0.70710678118655,0.,0.707106781186546));
#406=DIRECTION('',(0.,-1.,0.));
#407=DIRECTION('',(0.707106781186548,0.,-0.707106781186547));
#408=DIRECTION('',(-1.,4.9960036108132E-16,0.));
#409=DIRECTION('',(0.,-1.,0.));
#410=DIRECTION('',(-0.70710678118655,0.,-0.707106781186545));
#411=DIRECTION('',(0.,0.,1.));
#412=DIRECTION('',(1.,0.,0.));
#413=DIRECTION('',(0.,0.,1.));
#414=DIRECTION('',(0.0697564737441256,0.997564050259824,0.));
#415=DIRECTION('',(-3.48503594703248E-17,-0.0697564737441255,-0.997564050259824));
#416=DIRECTION('',(0.,0.997564050259824,-0.0697564737441255));
#417=DIRECTION('',(-1.,4.56597659478328E-35,3.49354604962435E-17));
#418=DIRECTION('',(-0.0695873743166654,0.995145815783509,-0.0695873743166649));
#419=DIRECTION('',(0.069587374316665,0.995145815783509,-0.0695873743166649));
#420=DIRECTION('',(0.069587374316665,0.995145815783508,-0.0695873743166649));
#421=DIRECTION('',(-0.997564050259824,0.0697564737441256,0.));
#422=DIRECTION('',(-0.0695873743166637,-0.995145815783509,0.0695873743166651));
#423=DIRECTION('',(0.,-0.0697564737441257,-0.997564050259824));
#424=DIRECTION('',(0.,0.,1.));
#425=DIRECTION('',(1.,0.,0.));
#426=DIRECTION('',(1.,0.,0.));
#427=DIRECTION('',(0.,0.,-1.));
#428=DIRECTION('',(-4.8521472911449E-16,-6.93889390390722E-15,-1.));
#429=DIRECTION('',(0.,1.,-6.93889390390722E-15));
#430=DIRECTION('',(0.069587374316665,0.995145815783508,0.0695873743166646));
#431=DIRECTION('',(-0.997564050259824,0.0697564737441256,0.));
#432=DIRECTION('',(-0.0695873743166646,-0.995145815783509,-0.0695873743166652));
#433=DIRECTION('',(0.,0.0697564737441258,-0.997564050259824));
#434=DIRECTION('',(0.,0.,-1.));
#435=DIRECTION('',(-1.,0.,0.));
#436=DIRECTION('',(0.,0.,1.));
#437=DIRECTION('',(1.,0.,0.));
#438=DIRECTION('',(-1.,0.,3.49354604962435E-17));
#439=DIRECTION('',(3.49354604962435E-17,0.,1.));
#440=DIRECTION('',(-1.,1.38777878078144E-14,-9.70429458228988E-16));
#441=DIRECTION('',(-1.38777878078144E-14,-1.,0.));
#442=DIRECTION('',(-0.0695873743166653,0.995145815783508,-0.0695873743166649));
#443=DIRECTION('',(-0.997564050259824,-0.069756473744126,0.));
#444=DIRECTION('',(0.0695873743166649,-0.995145815783508,0.0695873743166667));
#445=DIRECTION('',(0.,-0.0697564737441273,-0.997564050259824));
#446=DIRECTION('',(0.,0.,1.));
#447=DIRECTION('',(1.,0.,0.));
#448=DIRECTION('',(1.,0.,0.));
#449=DIRECTION('',(0.,0.,-1.));
#450=DIRECTION('',(0.,0.,1.));
#451=DIRECTION('',(1.,0.,0.));
#452=DIRECTION('',(0.,0.,-1.));
#453=DIRECTION('',(-1.,0.,0.));
#454=DIRECTION('',(1.,0.,0.));
#455=DIRECTION('',(0.,0.,-1.));
#456=DIRECTION('',(-1.,0.,0.));
#457=DIRECTION('',(0.,0.,1.));
#458=DIRECTION('',(0.,0.,-1.));
#459=DIRECTION('',(-1.,0.,0.));
#460=DIRECTION('',(4.85214729114493E-16,-6.93889390390722E-15,1.));
#461=DIRECTION('',(0.,-1.,-6.93889390390722E-15));
#462=DIRECTION('',(0.,0.,1.));
#463=DIRECTION('',(1.,0.,0.));
#464=DIRECTION('',(0.0695873743166642,-0.995145815783509,-0.0695873743166646));
#465=DIRECTION('',(0.,0.0697564737441253,-0.997564050259824));
#466=DIRECTION('',(-0.0695873743166653,0.995145815783508,0.0695873743166646));
#467=DIRECTION('',(-0.997564050259824,-0.069756473744126,0.));
#468=CARTESIAN_POINT('',(0.,0.,0.));
#469=CARTESIAN_POINT('',(0.,0.,0.));
#470=CARTESIAN_POINT('',(161.390458931961,0.,0.));
#471=CARTESIAN_POINT('',(161.390458931961,0.,-83.8904589319614));
#472=CARTESIAN_POINT('',(161.390458931961,0.,83.8904589319614));
#473=CARTESIAN_POINT('',(0.,0.,83.8904589319614));
#474=CARTESIAN_POINT('',(-161.390458931961,0.,83.8904589319614));
#475=CARTESIAN_POINT('',(-161.390458931961,0.,0.));
#476=CARTESIAN_POINT('',(-161.390458931961,0.,-83.8904589319614));
#477=CARTESIAN_POINT('',(-2.93075181402927E-15,0.,-83.8904589319614));
#478=CARTESIAN_POINT('',(168.5,75.,90.969972763208));
#479=CARTESIAN_POINT('',(168.5,75.,-91.));
#480=CARTESIAN_POINT('',(168.5,75.,-89.0048718994804));
#481=CARTESIAN_POINT('',(168.5,75.,89.0048718994804));
#482=CARTESIAN_POINT('',(168.509515809658,75.136082418083,89.0143877091385));
#483=CARTESIAN_POINT('',(163.385587032481,1.86048705251175,83.8904589319614));
#484=CARTESIAN_POINT('',(163.385587032481,1.86048705251175,90.969972763208));
#485=CARTESIAN_POINT('',(163.385587032481,1.86048705251175,-83.8904589319614));
#486=CARTESIAN_POINT('',(167.628489332701,62.5368168077877,-88.133361232181));
#487=CARTESIAN_POINT('',(-273.472307558978,75.,91.));
#488=CARTESIAN_POINT('',(168.5,75.,91.));
#489=CARTESIAN_POINT('',(168.5,75.,91.));
#490=CARTESIAN_POINT('',(-166.50487189948,75.,91.));
#491=CARTESIAN_POINT('',(-167.02285129491,82.4074504618917,91.5179793954296));
#492=CARTESIAN_POINT('',(-161.390458931961,1.86048705251175,85.8855870324811));
#493=CARTESIAN_POINT('',(-273.472307558978,1.86048705251175,85.8855870324811));
#494=CARTESIAN_POINT('',(161.390458931961,1.86048705251175,85.8855870324811));
#495=CARTESIAN_POINT('',(164.374325233445,44.5317631846775,88.8694533339646));
#496=CARTESIAN_POINT('',(166.474844662688,74.5705905080259,90.969972763208));
#497=CARTESIAN_POINT('',(-273.472307558978,74.5705905080259,90.969972763208));
#498=CARTESIAN_POINT('',(168.5,74.5705905080259,90.969972763208));
#499=CARTESIAN_POINT('',(168.5,75.,91.));
#500=CARTESIAN_POINT('',(168.5,75.,-91.));
#501=CARTESIAN_POINT('',(168.5,0.,90.969972763208));
#502=CARTESIAN_POINT('',(168.5,75.,90.969972763208));
#503=CARTESIAN_POINT('',(168.5,75.,-91.));
#504=CARTESIAN_POINT('',(-168.5,75.,-127.92693757118));
#505=CARTESIAN_POINT('',(-163.385587032481,1.86048705251177,-127.92693757118));
#506=CARTESIAN_POINT('',(-163.385587032481,1.86048705251175,-83.8904589319614));
#507=CARTESIAN_POINT('',(-163.385587032481,1.86048705251175,83.8904589319614));
#508=CARTESIAN_POINT('',(-167.449528827851,59.9775623547936,87.9544007273309));
#509=CARTESIAN_POINT('',(-168.5,75.,89.0048718994804));
#510=CARTESIAN_POINT('',(-168.5,75.,91.));
#511=CARTESIAN_POINT('',(-168.5,75.,-89.0048718994804));
#512=CARTESIAN_POINT('',(-168.688476314508,77.6953368710771,-89.1933482139886));
#513=CARTESIAN_POINT('',(0.,75.,0.));
#514=CARTESIAN_POINT('',(-166.495116203838,75.,88.9951162038377));
#515=CARTESIAN_POINT('',(0.,75.,90.969972763208));
#516=CARTESIAN_POINT('',(166.850410292312,75.,90.9699727632079));
#517=CARTESIAN_POINT('',(166.495116203838,75.,88.9951162038377));
#518=CARTESIAN_POINT('',(166.495116203838,75.,-88.9951162038377));
#519=CARTESIAN_POINT('',(166.50487189948,74.9999999999999,-91.));
#520=CARTESIAN_POINT('',(221.2705523092,74.9999999999999,-91.));
#521=CARTESIAN_POINT('',(-166.50487189948,75.0000000000001,-91.));
#522=CARTESIAN_POINT('',(-166.495116203838,75.,-88.9951162038376));
#523=CARTESIAN_POINT('',(0.,0.,90.969972763208));
#524=CARTESIAN_POINT('',(168.469972763208,103.241764560433,90.969972763208));
#525=CARTESIAN_POINT('',(221.2705523092,74.9999999999999,-91.));
#526=CARTESIAN_POINT('',(221.2705523092,1.86048705251175,-85.885587032481));
#527=CARTESIAN_POINT('',(161.390458931961,1.86048705251175,-85.885587032481));
#528=CARTESIAN_POINT('',(-161.390458931961,1.86048705251175,-85.885587032481));
#529=CARTESIAN_POINT('',(-164.627107152147,48.1467130397661,-89.1222352526666));
#530=CARTESIAN_POINT('',(166.770069376208,78.7925006068027,-91.2651974767276));
#531=CARTESIAN_POINT('',(165.633361232181,62.6763297552759,-88.133361232181));
#532=CARTESIAN_POINT('',(161.390458931961,2.,-83.8904589319614));
#533=CARTESIAN_POINT('',(161.390458931961,2.,-83.8904589319614));
#534=CARTESIAN_POINT('',(161.390458931961,2.,-83.8904589319614));
#535=CARTESIAN_POINT('',(161.390458931961,2.,-83.8904589319614));
#536=CARTESIAN_POINT('',(164.374325233445,44.6712761321658,86.874325233445));
#537=CARTESIAN_POINT('',(161.390458931961,2.,83.8904589319614));
#538=CARTESIAN_POINT('',(161.390458931961,2.,90.969972763208));
#539=CARTESIAN_POINT('',(161.390458931961,2.,83.8904589319614));
#540=CARTESIAN_POINT('',(221.2705523092,2.,-83.8904589319614));
#541=CARTESIAN_POINT('',(-161.390458931961,2.,-83.8904589319614));
#542=CARTESIAN_POINT('',(-164.627107152147,48.2862259872544,-87.1271071521469));
#543=CARTESIAN_POINT('',(-161.390458931961,2.,-83.8904589319614));
#544=CARTESIAN_POINT('',(161.390458931961,2.,83.8904589319614));
#545=CARTESIAN_POINT('',(161.390458931961,2.,83.8904589319614));
#546=CARTESIAN_POINT('',(-161.390458931961,2.,-83.8904589319614));
#547=CARTESIAN_POINT('',(-161.390458931961,2.,-83.8904589319614));
#548=CARTESIAN_POINT('',(-273.472307558978,2.,83.8904589319614));
#549=CARTESIAN_POINT('',(-161.390458931961,2.,83.8904589319614));
#550=CARTESIAN_POINT('',(-161.390458931961,2.,0.));
#551=CARTESIAN_POINT('',(-161.390458931961,2.,83.8904589319614));
#552=CARTESIAN_POINT('',(-161.390458931961,2.,83.8904589319614));
#553=CARTESIAN_POINT('',(-161.390458931961,2.,83.8904589319614));
#554=CARTESIAN_POINT('',(-165.454400727331,60.1170753022819,87.9544007273309));
#555=MECHANICAL_DESIGN_GEOMETRIC_PRESENTATION_REPRESENTATION('',(#318),
#556);
#556=(
GEOMETRIC_REPRESENTATION_CONTEXT(3)
GLOBAL_UNCERTAINTY_ASSIGNED_CONTEXT((#557))
GLOBAL_UNIT_ASSIGNED_CONTEXT((#560,#559,#558))
REPRESENTATION_CONTEXT('SNP 2130 LED 230V','TOP_LEVEL_ASSEMBLY_PART')
);
#557=UNCERTAINTY_MEASURE_WITH_UNIT(LENGTH_MEASURE(0.005),#560,
'DISTANCE_ACCURACY_VALUE','Maximum Tolerance applied to model');
#558=(
NAMED_UNIT(*)
SI_UNIT($,.STERADIAN.)
SOLID_ANGLE_UNIT()
);
#559=(
NAMED_UNIT(*)
PLANE_ANGLE_UNIT()
SI_UNIT($,.RADIAN.)
);
#560=(
LENGTH_UNIT()
NAMED_UNIT(*)
SI_UNIT(.MILLI.,.METRE.)
);
#561=PRODUCT_DEFINITION_SHAPE('','',#562);
#562=PRODUCT_DEFINITION('','',#564,#563);
#563=PRODUCT_DEFINITION_CONTEXT('',#570,'design');
#564=PRODUCT_DEFINITION_FORMATION_WITH_SPECIFIED_SOURCE('','',#566,
 .NOT_KNOWN.);
#565=PRODUCT_RELATED_PRODUCT_CATEGORY('','',(#566));
#566=PRODUCT('SNP 2130 LED 230V','SNP 2130 LED 230V',
'SNP 2130 LED 230V',(#568));
#567=PRODUCT_CATEGORY('','');
#568=PRODUCT_CONTEXT('',#570,'mechanical');
#569=APPLICATION_PROTOCOL_DEFINITION('international standard',
'automotive_design',2010,#570);
#570=APPLICATION_CONTEXT(
'core data for automotive mechanical design processes');
ENDSEC;
END-ISO-10303-21;
