ISO-10303-21;
HEADER;
/* Generated by software containing ST-Developer
 * from STEP Tools, Inc. (www.steptools.com) 
 */
/* OPTION: strings as raw bytes, not using required /X/ escapes */

FILE_DESCRIPTION(
/* description */ ('Unknown',
'CAx-IF Rec.Pracs.---Representation and Presentation of Product Manufa
cturing Information (PMI)---4.0---2014-10-13',
'CAx-IF Rec.Pracs.---3D Tessellated Geometry---0.4---2014-09-14','2;1'),

/* implementation_level */ '2;1');

FILE_NAME(
/* name */ 'SN 6308',
/* time_stamp */ '2020-08-26T11:16:39+02:00',
/* author */ ('Unknown'),
/* organization */ ('Unknown'),
/* preprocessor_version */ 'ST-DEVELOPER v16.7',
/* originating_system */ 'Solid Edge',
/* authorisation */ 'Unknown');

FILE_SCHEMA (('AP242_MANAGED_MODEL_BASED_3D_ENGINEERING_MIM_LF { 1 0 10303 442 1 1 4 }'));
ENDSEC;

DATA;
#10=SHAPE_REPRESENTATION_RELATIONSHIP('','',#423,#11);
#11=ADVANCED_BREP_SHAPE_REPRESENTATION('',(#421),#673);
#12=CYLINDRICAL_SURFACE('',#450,10.);
#13=CYLINDRICAL_SURFACE('',#451,10.);
#14=CIRCLE('',#426,10.);
#15=CIRCLE('',#427,10.);
#16=CIRCLE('',#448,10.);
#17=CIRCLE('',#449,10.);
#18=ORIENTED_EDGE('',*,*,#126,.F.);
#19=ORIENTED_EDGE('',*,*,#127,.F.);
#20=ORIENTED_EDGE('',*,*,#128,.F.);
#21=ORIENTED_EDGE('',*,*,#129,.F.);
#22=ORIENTED_EDGE('',*,*,#130,.F.);
#23=ORIENTED_EDGE('',*,*,#131,.T.);
#24=ORIENTED_EDGE('',*,*,#132,.F.);
#25=ORIENTED_EDGE('',*,*,#133,.T.);
#26=ORIENTED_EDGE('',*,*,#134,.T.);
#27=ORIENTED_EDGE('',*,*,#135,.T.);
#28=ORIENTED_EDGE('',*,*,#136,.T.);
#29=ORIENTED_EDGE('',*,*,#137,.T.);
#30=ORIENTED_EDGE('',*,*,#138,.T.);
#31=ORIENTED_EDGE('',*,*,#139,.T.);
#32=ORIENTED_EDGE('',*,*,#140,.T.);
#33=ORIENTED_EDGE('',*,*,#141,.T.);
#34=ORIENTED_EDGE('',*,*,#142,.T.);
#35=ORIENTED_EDGE('',*,*,#143,.F.);
#36=ORIENTED_EDGE('',*,*,#144,.F.);
#37=ORIENTED_EDGE('',*,*,#145,.T.);
#38=ORIENTED_EDGE('',*,*,#146,.T.);
#39=ORIENTED_EDGE('',*,*,#147,.F.);
#40=ORIENTED_EDGE('',*,*,#148,.F.);
#41=ORIENTED_EDGE('',*,*,#149,.T.);
#42=ORIENTED_EDGE('',*,*,#150,.T.);
#43=ORIENTED_EDGE('',*,*,#151,.F.);
#44=ORIENTED_EDGE('',*,*,#152,.F.);
#45=ORIENTED_EDGE('',*,*,#147,.T.);
#46=ORIENTED_EDGE('',*,*,#153,.T.);
#47=ORIENTED_EDGE('',*,*,#154,.F.);
#48=ORIENTED_EDGE('',*,*,#155,.F.);
#49=ORIENTED_EDGE('',*,*,#151,.T.);
#50=ORIENTED_EDGE('',*,*,#156,.T.);
#51=ORIENTED_EDGE('',*,*,#145,.F.);
#52=ORIENTED_EDGE('',*,*,#157,.F.);
#53=ORIENTED_EDGE('',*,*,#154,.T.);
#54=ORIENTED_EDGE('',*,*,#144,.T.);
#55=ORIENTED_EDGE('',*,*,#158,.T.);
#56=ORIENTED_EDGE('',*,*,#148,.T.);
#57=ORIENTED_EDGE('',*,*,#152,.T.);
#58=ORIENTED_EDGE('',*,*,#155,.T.);
#59=ORIENTED_EDGE('',*,*,#157,.T.);
#60=ORIENTED_EDGE('',*,*,#142,.F.);
#61=ORIENTED_EDGE('',*,*,#156,.F.);
#62=ORIENTED_EDGE('',*,*,#153,.F.);
#63=ORIENTED_EDGE('',*,*,#150,.F.);
#64=ORIENTED_EDGE('',*,*,#146,.F.);
#65=ORIENTED_EDGE('',*,*,#159,.F.);
#66=ORIENTED_EDGE('',*,*,#160,.F.);
#67=ORIENTED_EDGE('',*,*,#161,.F.);
#68=ORIENTED_EDGE('',*,*,#162,.F.);
#69=ORIENTED_EDGE('',*,*,#163,.F.);
#70=ORIENTED_EDGE('',*,*,#143,.T.);
#71=ORIENTED_EDGE('',*,*,#159,.T.);
#72=ORIENTED_EDGE('',*,*,#149,.F.);
#73=ORIENTED_EDGE('',*,*,#158,.F.);
#74=ORIENTED_EDGE('',*,*,#160,.T.);
#75=ORIENTED_EDGE('',*,*,#164,.F.);
#76=ORIENTED_EDGE('',*,*,#134,.F.);
#77=ORIENTED_EDGE('',*,*,#165,.T.);
#78=ORIENTED_EDGE('',*,*,#163,.T.);
#79=ORIENTED_EDGE('',*,*,#166,.F.);
#80=ORIENTED_EDGE('',*,*,#135,.F.);
#81=ORIENTED_EDGE('',*,*,#164,.T.);
#82=ORIENTED_EDGE('',*,*,#162,.T.);
#83=ORIENTED_EDGE('',*,*,#167,.F.);
#84=ORIENTED_EDGE('',*,*,#136,.F.);
#85=ORIENTED_EDGE('',*,*,#166,.T.);
#86=ORIENTED_EDGE('',*,*,#161,.T.);
#87=ORIENTED_EDGE('',*,*,#165,.F.);
#88=ORIENTED_EDGE('',*,*,#137,.F.);
#89=ORIENTED_EDGE('',*,*,#167,.T.);
#90=ORIENTED_EDGE('',*,*,#139,.F.);
#91=ORIENTED_EDGE('',*,*,#168,.F.);
#92=ORIENTED_EDGE('',*,*,#126,.T.);
#93=ORIENTED_EDGE('',*,*,#169,.T.);
#94=ORIENTED_EDGE('',*,*,#140,.F.);
#95=ORIENTED_EDGE('',*,*,#169,.F.);
#96=ORIENTED_EDGE('',*,*,#129,.T.);
#97=ORIENTED_EDGE('',*,*,#170,.T.);
#98=ORIENTED_EDGE('',*,*,#141,.F.);
#99=ORIENTED_EDGE('',*,*,#170,.F.);
#100=ORIENTED_EDGE('',*,*,#128,.T.);
#101=ORIENTED_EDGE('',*,*,#171,.T.);
#102=ORIENTED_EDGE('',*,*,#138,.F.);
#103=ORIENTED_EDGE('',*,*,#171,.F.);
#104=ORIENTED_EDGE('',*,*,#127,.T.);
#105=ORIENTED_EDGE('',*,*,#168,.T.);
#106=ORIENTED_EDGE('',*,*,#172,.F.);
#107=ORIENTED_EDGE('',*,*,#173,.T.);
#108=ORIENTED_EDGE('',*,*,#130,.T.);
#109=ORIENTED_EDGE('',*,*,#174,.T.);
#110=ORIENTED_EDGE('',*,*,#175,.F.);
#111=ORIENTED_EDGE('',*,*,#176,.T.);
#112=ORIENTED_EDGE('',*,*,#132,.T.);
#113=ORIENTED_EDGE('',*,*,#177,.T.);
#114=ORIENTED_EDGE('',*,*,#178,.T.);
#115=ORIENTED_EDGE('',*,*,#172,.T.);
#116=ORIENTED_EDGE('',*,*,#179,.T.);
#117=ORIENTED_EDGE('',*,*,#175,.T.);
#118=ORIENTED_EDGE('',*,*,#178,.F.);
#119=ORIENTED_EDGE('',*,*,#177,.F.);
#120=ORIENTED_EDGE('',*,*,#131,.F.);
#121=ORIENTED_EDGE('',*,*,#173,.F.);
#122=ORIENTED_EDGE('',*,*,#179,.F.);
#123=ORIENTED_EDGE('',*,*,#174,.F.);
#124=ORIENTED_EDGE('',*,*,#133,.F.);
#125=ORIENTED_EDGE('',*,*,#176,.F.);
#126=EDGE_CURVE('',#180,#181,#216,.T.);
#127=EDGE_CURVE('',#182,#180,#217,.T.);
#128=EDGE_CURVE('',#183,#182,#218,.T.);
#129=EDGE_CURVE('',#181,#183,#219,.T.);
#130=EDGE_CURVE('',#184,#185,#220,.T.);
#131=EDGE_CURVE('',#184,#186,#14,.T.);
#132=EDGE_CURVE('',#187,#186,#221,.T.);
#133=EDGE_CURVE('',#187,#185,#15,.T.);
#134=EDGE_CURVE('',#188,#189,#222,.T.);
#135=EDGE_CURVE('',#189,#190,#223,.T.);
#136=EDGE_CURVE('',#190,#191,#224,.T.);
#137=EDGE_CURVE('',#191,#188,#225,.T.);
#138=EDGE_CURVE('',#192,#193,#226,.T.);
#139=EDGE_CURVE('',#193,#194,#227,.T.);
#140=EDGE_CURVE('',#194,#195,#228,.T.);
#141=EDGE_CURVE('',#195,#192,#229,.T.);
#142=EDGE_CURVE('',#196,#197,#230,.T.);
#143=EDGE_CURVE('',#198,#197,#231,.T.);
#144=EDGE_CURVE('',#199,#198,#232,.T.);
#145=EDGE_CURVE('',#199,#196,#233,.T.);
#146=EDGE_CURVE('',#200,#201,#234,.T.);
#147=EDGE_CURVE('',#202,#201,#235,.T.);
#148=EDGE_CURVE('',#203,#202,#236,.T.);
#149=EDGE_CURVE('',#203,#200,#237,.T.);
#150=EDGE_CURVE('',#201,#204,#238,.T.);
#151=EDGE_CURVE('',#205,#204,#239,.T.);
#152=EDGE_CURVE('',#202,#205,#240,.T.);
#153=EDGE_CURVE('',#204,#206,#241,.T.);
#154=EDGE_CURVE('',#207,#206,#242,.T.);
#155=EDGE_CURVE('',#205,#207,#243,.T.);
#156=EDGE_CURVE('',#206,#196,#244,.T.);
#157=EDGE_CURVE('',#207,#199,#245,.T.);
#158=EDGE_CURVE('',#198,#203,#246,.T.);
#159=EDGE_CURVE('',#197,#200,#247,.T.);
#160=EDGE_CURVE('',#208,#209,#248,.T.);
#161=EDGE_CURVE('',#210,#208,#249,.T.);
#162=EDGE_CURVE('',#211,#210,#250,.T.);
#163=EDGE_CURVE('',#209,#211,#251,.T.);
#164=EDGE_CURVE('',#189,#209,#252,.T.);
#165=EDGE_CURVE('',#188,#208,#253,.T.);
#166=EDGE_CURVE('',#190,#211,#254,.T.);
#167=EDGE_CURVE('',#191,#210,#255,.T.);
#168=EDGE_CURVE('',#180,#193,#256,.T.);
#169=EDGE_CURVE('',#181,#194,#257,.T.);
#170=EDGE_CURVE('',#183,#195,#258,.T.);
#171=EDGE_CURVE('',#182,#192,#259,.T.);
#172=EDGE_CURVE('',#212,#213,#260,.T.);
#173=EDGE_CURVE('',#212,#184,#261,.T.);
#174=EDGE_CURVE('',#185,#213,#262,.F.);
#175=EDGE_CURVE('',#214,#215,#263,.T.);
#176=EDGE_CURVE('',#214,#187,#264,.T.);
#177=EDGE_CURVE('',#186,#215,#265,.F.);
#178=EDGE_CURVE('',#215,#212,#16,.T.);
#179=EDGE_CURVE('',#213,#214,#17,.T.);
#180=VERTEX_POINT('',#561);
#181=VERTEX_POINT('',#562);
#182=VERTEX_POINT('',#564);
#183=VERTEX_POINT('',#566);
#184=VERTEX_POINT('',#569);
#185=VERTEX_POINT('',#570);
#186=VERTEX_POINT('',#572);
#187=VERTEX_POINT('',#574);
#188=VERTEX_POINT('',#578);
#189=VERTEX_POINT('',#579);
#190=VERTEX_POINT('',#581);
#191=VERTEX_POINT('',#583);
#192=VERTEX_POINT('',#586);
#193=VERTEX_POINT('',#587);
#194=VERTEX_POINT('',#589);
#195=VERTEX_POINT('',#591);
#196=VERTEX_POINT('',#595);
#197=VERTEX_POINT('',#596);
#198=VERTEX_POINT('',#598);
#199=VERTEX_POINT('',#600);
#200=VERTEX_POINT('',#604);
#201=VERTEX_POINT('',#605);
#202=VERTEX_POINT('',#607);
#203=VERTEX_POINT('',#609);
#204=VERTEX_POINT('',#613);
#205=VERTEX_POINT('',#615);
#206=VERTEX_POINT('',#619);
#207=VERTEX_POINT('',#621);
#208=VERTEX_POINT('',#632);
#209=VERTEX_POINT('',#633);
#210=VERTEX_POINT('',#635);
#211=VERTEX_POINT('',#637);
#212=VERTEX_POINT('',#657);
#213=VERTEX_POINT('',#658);
#214=VERTEX_POINT('',#663);
#215=VERTEX_POINT('',#664);
#216=LINE('',#560,#266);
#217=LINE('',#563,#267);
#218=LINE('',#565,#268);
#219=LINE('',#567,#269);
#220=LINE('',#568,#270);
#221=LINE('',#573,#271);
#222=LINE('',#577,#272);
#223=LINE('',#580,#273);
#224=LINE('',#582,#274);
#225=LINE('',#584,#275);
#226=LINE('',#585,#276);
#227=LINE('',#588,#277);
#228=LINE('',#590,#278);
#229=LINE('',#592,#279);
#230=LINE('',#594,#280);
#231=LINE('',#597,#281);
#232=LINE('',#599,#282);
#233=LINE('',#601,#283);
#234=LINE('',#603,#284);
#235=LINE('',#606,#285);
#236=LINE('',#608,#286);
#237=LINE('',#610,#287);
#238=LINE('',#612,#288);
#239=LINE('',#614,#289);
#240=LINE('',#616,#290);
#241=LINE('',#618,#291);
#242=LINE('',#620,#292);
#243=LINE('',#622,#293);
#244=LINE('',#624,#294);
#245=LINE('',#625,#295);
#246=LINE('',#627,#296);
#247=LINE('',#629,#297);
#248=LINE('',#631,#298);
#249=LINE('',#634,#299);
#250=LINE('',#636,#300);
#251=LINE('',#638,#301);
#252=LINE('',#640,#302);
#253=LINE('',#641,#303);
#254=LINE('',#643,#304);
#255=LINE('',#645,#305);
#256=LINE('',#648,#306);
#257=LINE('',#649,#307);
#258=LINE('',#651,#308);
#259=LINE('',#653,#309);
#260=LINE('',#656,#310);
#261=LINE('',#659,#311);
#262=LINE('',#660,#312);
#263=LINE('',#662,#313);
#264=LINE('',#665,#314);
#265=LINE('',#666,#315);
#266=VECTOR('',#456,1000.);
#267=VECTOR('',#457,1000.);
#268=VECTOR('',#458,1000.);
#269=VECTOR('',#459,1000.);
#270=VECTOR('',#460,1000.);
#271=VECTOR('',#463,1000.);
#272=VECTOR('',#468,1000.);
#273=VECTOR('',#469,1000.);
#274=VECTOR('',#470,1000.);
#275=VECTOR('',#471,1000.);
#276=VECTOR('',#472,1000.);
#277=VECTOR('',#473,1000.);
#278=VECTOR('',#474,1000.);
#279=VECTOR('',#475,1000.);
#280=VECTOR('',#478,1000.);
#281=VECTOR('',#479,1000.);
#282=VECTOR('',#480,1000.);
#283=VECTOR('',#481,1000.);
#284=VECTOR('',#484,1000.);
#285=VECTOR('',#485,1000.);
#286=VECTOR('',#486,1000.);
#287=VECTOR('',#487,1000.);
#288=VECTOR('',#490,1000.);
#289=VECTOR('',#491,1000.);
#290=VECTOR('',#492,1000.);
#291=VECTOR('',#495,1000.);
#292=VECTOR('',#496,1000.);
#293=VECTOR('',#497,1000.);
#294=VECTOR('',#500,1000.);
#295=VECTOR('',#501,1000.);
#296=VECTOR('',#504,1000.);
#297=VECTOR('',#507,1000.);
#298=VECTOR('',#510,1000.);
#299=VECTOR('',#511,1000.);
#300=VECTOR('',#512,1000.);
#301=VECTOR('',#513,1000.);
#302=VECTOR('',#516,1000.);
#303=VECTOR('',#517,1000.);
#304=VECTOR('',#520,1000.);
#305=VECTOR('',#523,1000.);
#306=VECTOR('',#528,1000.);
#307=VECTOR('',#529,1000.);
#308=VECTOR('',#532,1000.);
#309=VECTOR('',#535,1000.);
#310=VECTOR('',#540,1000.);
#311=VECTOR('',#541,1000.);
#312=VECTOR('',#542,1000.);
#313=VECTOR('',#545,1000.);
#314=VECTOR('',#546,1000.);
#315=VECTOR('',#547,1000.);
#316=EDGE_LOOP('',(#18,#19,#20,#21));
#317=EDGE_LOOP('',(#22,#23,#24,#25));
#318=EDGE_LOOP('',(#26,#27,#28,#29));
#319=EDGE_LOOP('',(#30,#31,#32,#33));
#320=EDGE_LOOP('',(#34,#35,#36,#37));
#321=EDGE_LOOP('',(#38,#39,#40,#41));
#322=EDGE_LOOP('',(#42,#43,#44,#45));
#323=EDGE_LOOP('',(#46,#47,#48,#49));
#324=EDGE_LOOP('',(#50,#51,#52,#53));
#325=EDGE_LOOP('',(#54,#55,#56,#57,#58,#59));
#326=EDGE_LOOP('',(#60,#61,#62,#63,#64,#65));
#327=EDGE_LOOP('',(#66,#67,#68,#69));
#328=EDGE_LOOP('',(#70,#71,#72,#73));
#329=EDGE_LOOP('',(#74,#75,#76,#77));
#330=EDGE_LOOP('',(#78,#79,#80,#81));
#331=EDGE_LOOP('',(#82,#83,#84,#85));
#332=EDGE_LOOP('',(#86,#87,#88,#89));
#333=EDGE_LOOP('',(#90,#91,#92,#93));
#334=EDGE_LOOP('',(#94,#95,#96,#97));
#335=EDGE_LOOP('',(#98,#99,#100,#101));
#336=EDGE_LOOP('',(#102,#103,#104,#105));
#337=EDGE_LOOP('',(#106,#107,#108,#109));
#338=EDGE_LOOP('',(#110,#111,#112,#113));
#339=EDGE_LOOP('',(#114,#115,#116,#117));
#340=EDGE_LOOP('',(#118,#119,#120,#121));
#341=EDGE_LOOP('',(#122,#123,#124,#125));
#342=FACE_BOUND('',#316,.T.);
#343=FACE_BOUND('',#317,.T.);
#344=FACE_BOUND('',#318,.T.);
#345=FACE_BOUND('',#319,.T.);
#346=FACE_BOUND('',#320,.T.);
#347=FACE_BOUND('',#321,.T.);
#348=FACE_BOUND('',#322,.T.);
#349=FACE_BOUND('',#323,.T.);
#350=FACE_BOUND('',#324,.T.);
#351=FACE_BOUND('',#325,.T.);
#352=FACE_BOUND('',#326,.T.);
#353=FACE_BOUND('',#327,.T.);
#354=FACE_BOUND('',#328,.T.);
#355=FACE_BOUND('',#329,.T.);
#356=FACE_BOUND('',#330,.T.);
#357=FACE_BOUND('',#331,.T.);
#358=FACE_BOUND('',#332,.T.);
#359=FACE_BOUND('',#333,.T.);
#360=FACE_BOUND('',#334,.T.);
#361=FACE_BOUND('',#335,.T.);
#362=FACE_BOUND('',#336,.T.);
#363=FACE_BOUND('',#337,.T.);
#364=FACE_BOUND('',#338,.T.);
#365=FACE_BOUND('',#339,.T.);
#366=FACE_BOUND('',#340,.T.);
#367=FACE_BOUND('',#341,.T.);
#368=PLANE('',#425);
#369=PLANE('',#428);
#370=PLANE('',#429);
#371=PLANE('',#430);
#372=PLANE('',#431);
#373=PLANE('',#432);
#374=PLANE('',#433);
#375=PLANE('',#434);
#376=PLANE('',#435);
#377=PLANE('',#436);
#378=PLANE('',#437);
#379=PLANE('',#438);
#380=PLANE('',#439);
#381=PLANE('',#440);
#382=PLANE('',#441);
#383=PLANE('',#442);
#384=PLANE('',#443);
#385=PLANE('',#444);
#386=PLANE('',#445);
#387=PLANE('',#446);
#388=PLANE('',#447);
#389=ADVANCED_FACE('',(#342,#343),#368,.F.);
#390=ADVANCED_FACE('',(#344,#345),#369,.T.);
#391=ADVANCED_FACE('',(#346),#370,.F.);
#392=ADVANCED_FACE('',(#347),#371,.F.);
#393=ADVANCED_FACE('',(#348),#372,.F.);
#394=ADVANCED_FACE('',(#349),#373,.F.);
#395=ADVANCED_FACE('',(#350),#374,.F.);
#396=ADVANCED_FACE('',(#351),#375,.T.);
#397=ADVANCED_FACE('',(#352),#376,.F.);
#398=ADVANCED_FACE('',(#353,#354),#377,.F.);
#399=ADVANCED_FACE('',(#355),#378,.F.);
#400=ADVANCED_FACE('',(#356),#379,.F.);
#401=ADVANCED_FACE('',(#357),#380,.F.);
#402=ADVANCED_FACE('',(#358),#381,.F.);
#403=ADVANCED_FACE('',(#359),#382,.T.);
#404=ADVANCED_FACE('',(#360),#383,.T.);
#405=ADVANCED_FACE('',(#361),#384,.T.);
#406=ADVANCED_FACE('',(#362),#385,.T.);
#407=ADVANCED_FACE('',(#363),#386,.F.);
#408=ADVANCED_FACE('',(#364),#387,.F.);
#409=ADVANCED_FACE('',(#365),#388,.T.);
#410=ADVANCED_FACE('',(#366),#12,.F.);
#411=ADVANCED_FACE('',(#367),#13,.F.);
#412=CLOSED_SHELL('',(#389,#390,#391,#392,#393,#394,#395,#396,#397,#398,
#399,#400,#401,#402,#403,#404,#405,#406,#407,#408,#409,#410,#411));
#413=STYLED_ITEM('',(#414),#421);
#414=PRESENTATION_STYLE_ASSIGNMENT((#415));
#415=SURFACE_STYLE_USAGE(.BOTH.,#416);
#416=SURFACE_SIDE_STYLE('',(#417));
#417=SURFACE_STYLE_FILL_AREA(#418);
#418=FILL_AREA_STYLE('',(#419));
#419=FILL_AREA_STYLE_COLOUR('',#420);
#420=COLOUR_RGB('',0.645180702209473,0.678915679454803,0.699999988079071);
#421=MANIFOLD_SOLID_BREP('',#412);
#422=SHAPE_DEFINITION_REPRESENTATION(#678,#423);
#423=SHAPE_REPRESENTATION('SN 6308',(#424),#673);
#424=AXIS2_PLACEMENT_3D('',#558,#452,#453);
#425=AXIS2_PLACEMENT_3D('',#559,#454,#455);
#426=AXIS2_PLACEMENT_3D('',#571,#461,#462);
#427=AXIS2_PLACEMENT_3D('',#575,#464,#465);
#428=AXIS2_PLACEMENT_3D('',#576,#466,#467);
#429=AXIS2_PLACEMENT_3D('',#593,#476,#477);
#430=AXIS2_PLACEMENT_3D('',#602,#482,#483);
#431=AXIS2_PLACEMENT_3D('',#611,#488,#489);
#432=AXIS2_PLACEMENT_3D('',#617,#493,#494);
#433=AXIS2_PLACEMENT_3D('',#623,#498,#499);
#434=AXIS2_PLACEMENT_3D('',#626,#502,#503);
#435=AXIS2_PLACEMENT_3D('',#628,#505,#506);
#436=AXIS2_PLACEMENT_3D('',#630,#508,#509);
#437=AXIS2_PLACEMENT_3D('',#639,#514,#515);
#438=AXIS2_PLACEMENT_3D('',#642,#518,#519);
#439=AXIS2_PLACEMENT_3D('',#644,#521,#522);
#440=AXIS2_PLACEMENT_3D('',#646,#524,#525);
#441=AXIS2_PLACEMENT_3D('',#647,#526,#527);
#442=AXIS2_PLACEMENT_3D('',#650,#530,#531);
#443=AXIS2_PLACEMENT_3D('',#652,#533,#534);
#444=AXIS2_PLACEMENT_3D('',#654,#536,#537);
#445=AXIS2_PLACEMENT_3D('',#655,#538,#539);
#446=AXIS2_PLACEMENT_3D('',#661,#543,#544);
#447=AXIS2_PLACEMENT_3D('',#667,#548,#549);
#448=AXIS2_PLACEMENT_3D('',#668,#550,#551);
#449=AXIS2_PLACEMENT_3D('',#669,#552,#553);
#450=AXIS2_PLACEMENT_3D('',#670,#554,#555);
#451=AXIS2_PLACEMENT_3D('',#671,#556,#557);
#452=DIRECTION('',(0.,0.,1.));
#453=DIRECTION('',(1.,0.,0.));
#454=DIRECTION('',(0.,0.,1.));
#455=DIRECTION('',(1.,0.,0.));
#456=DIRECTION('',(-1.,0.,0.));
#457=DIRECTION('',(2.9738116731031E-16,1.,0.));
#458=DIRECTION('',(1.,-1.30491657807376E-16,0.));
#459=DIRECTION('',(0.,-1.,0.));
#460=DIRECTION('',(1.,-1.23908819712629E-16,0.));
#461=DIRECTION('',(0.,0.,1.));
#462=DIRECTION('',(1.,0.,0.));
#463=DIRECTION('',(-1.,0.,0.));
#464=DIRECTION('',(0.,0.,1.));
#465=DIRECTION('',(1.,0.,0.));
#466=DIRECTION('',(0.,0.,-1.));
#467=DIRECTION('',(-1.,0.,0.));
#468=DIRECTION('',(1.,0.,0.));
#469=DIRECTION('',(0.,-1.,0.));
#470=DIRECTION('',(-1.,0.,0.));
#471=DIRECTION('',(0.,1.,0.));
#472=DIRECTION('',(2.9738116731031E-16,1.,0.));
#473=DIRECTION('',(-1.,0.,0.));
#474=DIRECTION('',(0.,-1.,0.));
#475=DIRECTION('',(1.,-1.30491657807376E-16,0.));
#476=DIRECTION('',(0.,1.,0.));
#477=DIRECTION('',(0.,0.,1.));
#478=DIRECTION('',(0.,0.,-1.));
#479=DIRECTION('',(-1.,0.,0.));
#480=DIRECTION('',(0.,0.,-1.));
#481=DIRECTION('',(-1.,0.,0.));
#482=DIRECTION('',(0.,-1.,0.));
#483=DIRECTION('',(0.,0.,-1.));
#484=DIRECTION('',(0.,0.,1.));
#485=DIRECTION('',(-1.,0.,0.));
#486=DIRECTION('',(0.,0.,1.));
#487=DIRECTION('',(-1.,0.,0.));
#488=DIRECTION('',(0.,-0.499999999999998,0.86602540378444));
#489=DIRECTION('',(0.,-0.86602540378444,-0.499999999999998));
#490=DIRECTION('',(5.30270106023007E-17,0.86602540378444,0.499999999999998));
#491=DIRECTION('',(-1.,0.,0.));
#492=DIRECTION('',(5.30270106023007E-17,0.86602540378444,0.499999999999998));
#493=DIRECTION('',(0.,-1.,0.));
#494=DIRECTION('',(0.,0.,-1.));
#495=DIRECTION('',(0.,0.,1.));
#496=DIRECTION('',(-1.,0.,0.));
#497=DIRECTION('',(0.,0.,1.));
#498=DIRECTION('',(0.,0.34202014332567,-0.939692620785908));
#499=DIRECTION('',(0.,0.939692620785908,0.34202014332567));
#500=DIRECTION('',(-5.75376777027212E-17,-0.939692620785908,-0.34202014332567));
#501=DIRECTION('',(-5.75376777027212E-17,-0.939692620785908,-0.34202014332567));
#502=DIRECTION('',(1.,-6.12303176911189E-17,0.));
#503=DIRECTION('',(6.12303176911189E-17,1.,0.));
#504=DIRECTION('',(6.12303176911189E-17,1.,0.));
#505=DIRECTION('',(1.,-6.12303176911189E-17,0.));
#506=DIRECTION('',(6.12303176911189E-17,1.,0.));
#507=DIRECTION('',(6.12303176911189E-17,1.,0.));
#508=DIRECTION('',(0.,0.,-1.));
#509=DIRECTION('',(-1.,0.,0.));
#510=DIRECTION('',(1.,0.,0.));
#511=DIRECTION('',(0.,1.,0.));
#512=DIRECTION('',(-1.,0.,0.));
#513=DIRECTION('',(0.,-1.,0.));
#514=DIRECTION('',(0.,-1.,0.));
#515=DIRECTION('',(0.,0.,-1.));
#516=DIRECTION('',(0.,0.,1.));
#517=DIRECTION('',(0.,0.,1.));
#518=DIRECTION('',(-1.,0.,0.));
#519=DIRECTION('',(0.,0.,1.));
#520=DIRECTION('',(0.,0.,1.));
#521=DIRECTION('',(0.,1.,0.));
#522=DIRECTION('',(0.,0.,1.));
#523=DIRECTION('',(0.,0.,1.));
#524=DIRECTION('',(1.,0.,0.));
#525=DIRECTION('',(0.,0.,-1.));
#526=DIRECTION('',(0.,-1.,0.));
#527=DIRECTION('',(0.,0.,-1.));
#528=DIRECTION('',(0.,0.,-1.));
#529=DIRECTION('',(0.,0.,-1.));
#530=DIRECTION('',(1.,0.,0.));
#531=DIRECTION('',(0.,0.,-1.));
#532=DIRECTION('',(0.,0.,-1.));
#533=DIRECTION('',(1.30491657807376E-16,1.,0.));
#534=DIRECTION('',(-1.,1.30491657807376E-16,0.));
#535=DIRECTION('',(0.,0.,-1.));
#536=DIRECTION('',(-1.,2.9738116731031E-16,0.));
#537=DIRECTION('',(-2.9738116731031E-16,-1.,0.));
#538=DIRECTION('',(1.23908819712629E-16,1.,0.));
#539=DIRECTION('',(-1.,1.23908819712629E-16,0.));
#540=DIRECTION('',(1.,-1.23908819712629E-16,0.));
#541=DIRECTION('',(0.,0.,-1.));
#542=DIRECTION('',(0.,0.,-1.));
#543=DIRECTION('',(0.,-1.,0.));
#544=DIRECTION('',(0.,0.,-1.));
#545=DIRECTION('',(-1.,0.,0.));
#546=DIRECTION('',(0.,0.,-1.));
#547=DIRECTION('',(0.,0.,-1.));
#548=DIRECTION('',(0.,0.,-1.));
#549=DIRECTION('',(-1.,0.,0.));
#550=DIRECTION('',(0.,0.,-1.));
#551=DIRECTION('',(-1.,0.,0.));
#552=DIRECTION('',(0.,0.,-1.));
#553=DIRECTION('',(-1.,0.,0.));
#554=DIRECTION('',(0.,0.,1.));
#555=DIRECTION('',(1.,0.,0.));
#556=DIRECTION('',(0.,0.,1.));
#557=DIRECTION('',(1.,0.,0.));
#558=CARTESIAN_POINT('',(0.,0.,0.));
#559=CARTESIAN_POINT('',(0.,0.,-4.5));
#560=CARTESIAN_POINT('',(181.35,70.,-4.5));
#561=CARTESIAN_POINT('',(181.35,70.,-4.5));
#562=CARTESIAN_POINT('',(-31.35,70.,-4.5));
#563=CARTESIAN_POINT('',(181.35,-70.,-4.5));
#564=CARTESIAN_POINT('',(181.35,-70.,-4.5));
#565=CARTESIAN_POINT('',(-31.35,-70.,-4.5));
#566=CARTESIAN_POINT('',(-31.35,-70.,-4.5));
#567=CARTESIAN_POINT('',(-31.35,70.,-4.5));
#568=CARTESIAN_POINT('',(40.,10.,-4.5));
#569=CARTESIAN_POINT('',(50.,10.,-4.5));
#570=CARTESIAN_POINT('',(100.,10.,-4.5));
#571=CARTESIAN_POINT('',(50.,8.67361737988404E-15,-4.5));
#572=CARTESIAN_POINT('',(50.,-9.99999999999999,-4.5));
#573=CARTESIAN_POINT('',(110.,-9.99999999999999,-4.5));
#574=CARTESIAN_POINT('',(100.,-9.99999999999999,-4.5));
#575=CARTESIAN_POINT('',(100.,8.67361737988404E-15,-4.5));
#576=CARTESIAN_POINT('',(0.,0.,-24.5));
#577=CARTESIAN_POINT('',(-32.85,71.5,-24.5));
#578=CARTESIAN_POINT('',(-32.85,71.5,-24.5));
#579=CARTESIAN_POINT('',(182.85,71.5,-24.5));
#580=CARTESIAN_POINT('',(182.85,71.5,-24.5));
#581=CARTESIAN_POINT('',(182.85,-71.5,-24.5));
#582=CARTESIAN_POINT('',(182.85,-71.5,-24.5));
#583=CARTESIAN_POINT('',(-32.85,-71.5,-24.5));
#584=CARTESIAN_POINT('',(-32.85,-71.5,-24.5));
#585=CARTESIAN_POINT('',(181.35,-70.,-24.5));
#586=CARTESIAN_POINT('',(181.35,-70.,-24.5));
#587=CARTESIAN_POINT('',(181.35,70.,-24.5));
#588=CARTESIAN_POINT('',(181.35,70.,-24.5));
#589=CARTESIAN_POINT('',(-31.35,70.,-24.5));
#590=CARTESIAN_POINT('',(-31.35,70.,-24.5));
#591=CARTESIAN_POINT('',(-31.35,-70.,-24.5));
#592=CARTESIAN_POINT('',(-31.35,-70.,-24.5));
#593=CARTESIAN_POINT('',(150.,-29.9999999999998,1.83690953073358E-15));
#594=CARTESIAN_POINT('',(-1.83690953073355E-15,-29.9999999999998,1.83690953073358E-15));
#595=CARTESIAN_POINT('',(-1.83690953073355E-15,-29.9999999999998,800.72));
#596=CARTESIAN_POINT('',(-1.83690953073355E-15,-29.9999999999998,1.83690953073358E-15));
#597=CARTESIAN_POINT('',(150.,-29.9999999999998,1.83690953073358E-15));
#598=CARTESIAN_POINT('',(150.,-29.9999999999998,1.83690953073358E-15));
#599=CARTESIAN_POINT('',(150.,-29.9999999999998,1.83690953073358E-15));
#600=CARTESIAN_POINT('',(150.,-29.9999999999998,800.72));
#601=CARTESIAN_POINT('',(150.,-29.9999999999998,800.72));
#602=CARTESIAN_POINT('',(150.,29.9999999999998,1.83690953073358E-15));
#603=CARTESIAN_POINT('',(1.83690953073355E-15,29.9999999999998,1.83690953073358E-15));
#604=CARTESIAN_POINT('',(1.83690953073355E-15,29.9999999999998,1.83690953073358E-15));
#605=CARTESIAN_POINT('',(1.83690953073355E-15,29.9999999999998,729.275306881989));
#606=CARTESIAN_POINT('',(150.,29.9999999999998,729.275306881989));
#607=CARTESIAN_POINT('',(150.,29.9999999999998,729.275306881989));
#608=CARTESIAN_POINT('',(150.,29.9999999999998,1.83690953073358E-15));
#609=CARTESIAN_POINT('',(150.,29.9999999999998,1.83690953073358E-15));
#610=CARTESIAN_POINT('',(150.,29.9999999999998,1.83690953073358E-15));
#611=CARTESIAN_POINT('',(150.,92.25,765.215361139043));
#612=CARTESIAN_POINT('',(5.64849680700572E-15,92.25,765.215361139043));
#613=CARTESIAN_POINT('',(5.64849680700572E-15,92.25,765.215361139043));
#614=CARTESIAN_POINT('',(150.,92.25,765.215361139043));
#615=CARTESIAN_POINT('',(150.,92.25,765.215361139043));
#616=CARTESIAN_POINT('',(150.,92.25,765.215361139043));
#617=CARTESIAN_POINT('',(150.,92.25,845.215361139043));
#618=CARTESIAN_POINT('',(5.64849680700572E-15,92.25,845.215361139043));
#619=CARTESIAN_POINT('',(5.64849680700572E-15,92.25,845.215361139043));
#620=CARTESIAN_POINT('',(150.,92.25,845.215361139043));
#621=CARTESIAN_POINT('',(150.,92.25,845.215361139043));
#622=CARTESIAN_POINT('',(150.,92.25,845.215361139043));
#623=CARTESIAN_POINT('',(150.,-29.9999999999998,800.72));
#624=CARTESIAN_POINT('',(-1.83690953073355E-15,-29.9999999999998,800.72));
#625=CARTESIAN_POINT('',(150.,-29.9999999999998,800.72));
#626=CARTESIAN_POINT('',(150.,0.,0.));
#627=CARTESIAN_POINT('',(150.,-29.9999999999998,1.83690953073358E-15));
#628=CARTESIAN_POINT('',(0.,0.,0.));
#629=CARTESIAN_POINT('',(-1.83690953073355E-15,-29.9999999999998,1.83690953073358E-15));
#630=CARTESIAN_POINT('',(0.,0.,1.83690953073358E-15));
#631=CARTESIAN_POINT('',(-32.85,71.5,1.83690953073358E-15));
#632=CARTESIAN_POINT('',(-32.85,71.5,1.83690953073358E-15));
#633=CARTESIAN_POINT('',(182.85,71.5,1.83690953073358E-15));
#634=CARTESIAN_POINT('',(-32.85,-71.5,1.83690953073358E-15));
#635=CARTESIAN_POINT('',(-32.85,-71.5,1.83690953073358E-15));
#636=CARTESIAN_POINT('',(182.85,-71.5,1.83690953073358E-15));
#637=CARTESIAN_POINT('',(182.85,-71.5,1.83690953073358E-15));
#638=CARTESIAN_POINT('',(182.85,71.5,1.83690953073358E-15));
#639=CARTESIAN_POINT('',(-32.85,71.5,-24.5));
#640=CARTESIAN_POINT('',(182.85,71.5,-24.5));
#641=CARTESIAN_POINT('',(-32.85,71.5,-24.5));
#642=CARTESIAN_POINT('',(182.85,71.5,-24.5));
#643=CARTESIAN_POINT('',(182.85,-71.5,-24.5));
#644=CARTESIAN_POINT('',(182.85,-71.5,-24.5));
#645=CARTESIAN_POINT('',(-32.85,-71.5,-24.5));
#646=CARTESIAN_POINT('',(-32.85,-71.5,-24.5));
#647=CARTESIAN_POINT('',(181.35,70.,-4.5));
#648=CARTESIAN_POINT('',(181.35,70.,-4.5));
#649=CARTESIAN_POINT('',(-31.35,70.,-4.5));
#650=CARTESIAN_POINT('',(-31.35,70.,-4.5));
#651=CARTESIAN_POINT('',(-31.35,-70.,-4.5));
#652=CARTESIAN_POINT('',(-31.35,-70.,-4.5));
#653=CARTESIAN_POINT('',(181.35,-70.,-4.5));
#654=CARTESIAN_POINT('',(181.35,-70.,-4.5));
#655=CARTESIAN_POINT('',(40.,10.,0.500000000000003));
#656=CARTESIAN_POINT('',(40.,10.,0.500000000000003));
#657=CARTESIAN_POINT('',(50.,10.,0.500000000000003));
#658=CARTESIAN_POINT('',(100.,10.,0.500000000000003));
#659=CARTESIAN_POINT('',(50.,10.,-4.5));
#660=CARTESIAN_POINT('',(100.,10.,0.500000000000003));
#661=CARTESIAN_POINT('',(110.,-9.99999999999999,0.500000000000003));
#662=CARTESIAN_POINT('',(110.,-9.99999999999999,0.500000000000003));
#663=CARTESIAN_POINT('',(100.,-9.99999999999999,0.500000000000003));
#664=CARTESIAN_POINT('',(50.,-9.99999999999999,0.500000000000003));
#665=CARTESIAN_POINT('',(100.,-9.99999999999999,-4.5));
#666=CARTESIAN_POINT('',(50.,-9.99999999999999,0.500000000000003));
#667=CARTESIAN_POINT('',(0.,0.,0.500000000000003));
#668=CARTESIAN_POINT('',(50.,8.67361737988404E-15,0.500000000000003));
#669=CARTESIAN_POINT('',(100.,8.67361737988404E-15,0.500000000000003));
#670=CARTESIAN_POINT('',(50.,8.67361737988404E-15,0.500000000000003));
#671=CARTESIAN_POINT('',(100.,8.67361737988404E-15,0.500000000000003));
#672=MECHANICAL_DESIGN_GEOMETRIC_PRESENTATION_REPRESENTATION('',(#413),
#673);
#673=(
GEOMETRIC_REPRESENTATION_CONTEXT(3)
GLOBAL_UNCERTAINTY_ASSIGNED_CONTEXT((#674))
GLOBAL_UNIT_ASSIGNED_CONTEXT((#677,#676,#675))
REPRESENTATION_CONTEXT('SN 6308','TOP_LEVEL_ASSEMBLY_PART')
);
#674=UNCERTAINTY_MEASURE_WITH_UNIT(LENGTH_MEASURE(0.005),#677,
'DISTANCE_ACCURACY_VALUE','Maximum Tolerance applied to model');
#675=(
NAMED_UNIT(*)
SI_UNIT($,.STERADIAN.)
SOLID_ANGLE_UNIT()
);
#676=(
NAMED_UNIT(*)
PLANE_ANGLE_UNIT()
SI_UNIT($,.RADIAN.)
);
#677=(
LENGTH_UNIT()
NAMED_UNIT(*)
SI_UNIT(.MILLI.,.METRE.)
);
#678=PRODUCT_DEFINITION_SHAPE('','',#679);
#679=PRODUCT_DEFINITION('','',#681,#680);
#680=PRODUCT_DEFINITION_CONTEXT('',#687,'design');
#681=PRODUCT_DEFINITION_FORMATION_WITH_SPECIFIED_SOURCE('','',#683,
 .NOT_KNOWN.);
#682=PRODUCT_RELATED_PRODUCT_CATEGORY('','',(#683));
#683=PRODUCT('SN 6308','SN 6308','SN 6308',(#685));
#684=PRODUCT_CATEGORY('','');
#685=PRODUCT_CONTEXT('',#687,'mechanical');
#686=APPLICATION_PROTOCOL_DEFINITION('international standard',
'ap242_managed_model_based_3d_engineering',2011,#687);
#687=APPLICATION_CONTEXT('managed model based 3d engineering');
ENDSEC;
END-ISO-10303-21;
