ISO-10303-21;
HEADER;
/* Generated by software containing ST-Developer
 * from STEP Tools, Inc. (www.steptools.com) 
 */
/* OPTION: strings as raw bytes, not using required /X/ escapes */

FILE_DESCRIPTION(
/* description */ ('Unknown'),
/* implementation_level */ '2;1');

FILE_NAME(
/* name */ 'SN A 6200 RD',
/* time_stamp */ '2020-08-27T09:24:34+02:00',
/* author */ ('Unknown'),
/* organization */ ('Unknown'),
/* preprocessor_version */ 'ST-DEVELOPER v16.7',
/* originating_system */ 'Solid Edge',
/* authorisation */ 'Unknown');

FILE_SCHEMA (('AUTOMOTIVE_DESIGN {1 0 10303 214 3 1 1}'));
ENDSEC;

DATA;
#10=PROPERTY_DEFINITION_REPRESENTATION(#14,#12);
#11=PROPERTY_DEFINITION_REPRESENTATION(#15,#13);
#12=REPRESENTATION('',(#16),#143);
#13=REPRESENTATION('',(#17),#143);
#14=PROPERTY_DEFINITION('pmi validation property','',#148);
#15=PROPERTY_DEFINITION('pmi validation property','',#148);
#16=VALUE_REPRESENTATION_ITEM('number of annotations',COUNT_MEASURE(0.));
#17=VALUE_REPRESENTATION_ITEM('number of views',COUNT_MEASURE(0.));
#18=SHAPE_REPRESENTATION_RELATIONSHIP('','',#88,#19);
#19=ADVANCED_BREP_SHAPE_REPRESENTATION('',(#86),#143);
#20=SPHERICAL_SURFACE('',#100,132.042372881356);
#21=PLANE('',#93);
#22=PLANE('',#97);
#23=PLANE('',#99);
#24=ORIENTED_EDGE('',*,*,#34,.T.);
#25=ORIENTED_EDGE('',*,*,#35,.F.);
#26=ORIENTED_EDGE('',*,*,#35,.T.);
#27=ORIENTED_EDGE('',*,*,#36,.T.);
#28=ORIENTED_EDGE('',*,*,#37,.F.);
#29=ORIENTED_EDGE('',*,*,#38,.F.);
#30=ORIENTED_EDGE('',*,*,#36,.F.);
#31=ORIENTED_EDGE('',*,*,#34,.F.);
#32=ORIENTED_EDGE('',*,*,#37,.T.);
#33=ORIENTED_EDGE('',*,*,#38,.T.);
#34=EDGE_CURVE('',#39,#39,#44,.T.);
#35=EDGE_CURVE('',#40,#40,#45,.T.);
#36=EDGE_CURVE('',#41,#41,#46,.T.);
#37=EDGE_CURVE('',#42,#42,#47,.T.);
#38=EDGE_CURVE('',#43,#43,#48,.F.);
#39=VERTEX_POINT('',#128);
#40=VERTEX_POINT('',#130);
#41=VERTEX_POINT('',#134);
#42=VERTEX_POINT('',#136);
#43=VERTEX_POINT('',#139);
#44=CIRCLE('',#91,125.);
#45=CIRCLE('',#92,125.);
#46=CIRCLE('',#95,135.);
#47=CIRCLE('',#96,135.);
#48=CIRCLE('',#98,110.);
#49=EDGE_LOOP('',(#24));
#50=EDGE_LOOP('',(#25));
#51=EDGE_LOOP('',(#26));
#52=EDGE_LOOP('',(#27));
#53=EDGE_LOOP('',(#28));
#54=EDGE_LOOP('',(#29));
#55=EDGE_LOOP('',(#30));
#56=EDGE_LOOP('',(#31));
#57=EDGE_LOOP('',(#32));
#58=EDGE_LOOP('',(#33));
#59=FACE_BOUND('',#49,.T.);
#60=FACE_BOUND('',#50,.T.);
#61=FACE_BOUND('',#51,.T.);
#62=FACE_BOUND('',#52,.T.);
#63=FACE_BOUND('',#53,.T.);
#64=FACE_BOUND('',#54,.T.);
#65=FACE_BOUND('',#55,.T.);
#66=FACE_BOUND('',#56,.T.);
#67=FACE_BOUND('',#57,.T.);
#68=FACE_BOUND('',#58,.T.);
#69=CYLINDRICAL_SURFACE('',#90,125.);
#70=CYLINDRICAL_SURFACE('',#94,135.);
#71=ADVANCED_FACE('',(#59,#60),#69,.T.);
#72=ADVANCED_FACE('',(#61),#21,.T.);
#73=ADVANCED_FACE('',(#62,#63),#70,.T.);
#74=ADVANCED_FACE('',(#64,#65),#22,.F.);
#75=ADVANCED_FACE('',(#66,#67),#23,.T.);
#76=ADVANCED_FACE('',(#68),#20,.T.);
#77=CLOSED_SHELL('',(#71,#72,#73,#74,#75,#76));
#78=STYLED_ITEM('',(#79),#86);
#79=PRESENTATION_STYLE_ASSIGNMENT((#80));
#80=SURFACE_STYLE_USAGE(.BOTH.,#81);
#81=SURFACE_SIDE_STYLE('',(#82));
#82=SURFACE_STYLE_FILL_AREA(#83);
#83=FILL_AREA_STYLE('',(#84));
#84=FILL_AREA_STYLE_COLOUR('',#85);
#85=COLOUR_RGB('',0.645180702209473,0.678915679454803,0.699999988079071);
#86=MANIFOLD_SOLID_BREP('',#77);
#87=SHAPE_DEFINITION_REPRESENTATION(#148,#88);
#88=SHAPE_REPRESENTATION('SN A 6200 RD',(#89),#143);
#89=AXIS2_PLACEMENT_3D('',#125,#101,#102);
#90=AXIS2_PLACEMENT_3D('',#126,#103,#104);
#91=AXIS2_PLACEMENT_3D('',#127,#105,#106);
#92=AXIS2_PLACEMENT_3D('',#129,#107,#108);
#93=AXIS2_PLACEMENT_3D('',#131,#109,#110);
#94=AXIS2_PLACEMENT_3D('',#132,#111,#112);
#95=AXIS2_PLACEMENT_3D('',#133,#113,#114);
#96=AXIS2_PLACEMENT_3D('',#135,#115,#116);
#97=AXIS2_PLACEMENT_3D('',#137,#117,#118);
#98=AXIS2_PLACEMENT_3D('',#138,#119,#120);
#99=AXIS2_PLACEMENT_3D('',#140,#121,#122);
#100=AXIS2_PLACEMENT_3D('',#141,#123,#124);
#101=DIRECTION('',(0.,0.,1.));
#102=DIRECTION('',(1.,0.,0.));
#103=DIRECTION('',(0.,0.,-1.));
#104=DIRECTION('',(-1.,0.,0.));
#105=DIRECTION('',(0.,0.,-1.));
#106=DIRECTION('',(1.,0.,0.));
#107=DIRECTION('',(0.,0.,-1.));
#108=DIRECTION('',(1.,0.,0.));
#109=DIRECTION('',(0.,0.,-1.));
#110=DIRECTION('',(-1.,0.,0.));
#111=DIRECTION('',(0.,0.,-1.));
#112=DIRECTION('',(-1.,0.,0.));
#113=DIRECTION('',(0.,0.,-1.));
#114=DIRECTION('',(1.,0.,0.));
#115=DIRECTION('',(0.,0.,-1.));
#116=DIRECTION('',(1.,0.,0.));
#117=DIRECTION('',(0.,0.,-1.));
#118=DIRECTION('',(-1.,0.,0.));
#119=DIRECTION('',(0.,0.,-1.));
#120=DIRECTION('',(-1.,0.,0.));
#121=DIRECTION('',(0.,0.,-1.));
#122=DIRECTION('',(-1.,0.,0.));
#123=DIRECTION('',(0.,0.,1.));
#124=DIRECTION('',(1.,0.,0.));
#125=CARTESIAN_POINT('',(0.,0.,0.));
#126=CARTESIAN_POINT('',(0.,0.,21.6));
#127=CARTESIAN_POINT('',(0.,0.,21.6));
#128=CARTESIAN_POINT('',(125.,0.,21.6));
#129=CARTESIAN_POINT('',(0.,0.,0.));
#130=CARTESIAN_POINT('',(125.,0.,0.));
#131=CARTESIAN_POINT('',(0.,0.,0.));
#132=CARTESIAN_POINT('',(0.,0.,55.6));
#133=CARTESIAN_POINT('',(0.,0.,55.6));
#134=CARTESIAN_POINT('',(135.,0.,55.6));
#135=CARTESIAN_POINT('',(0.,0.,21.6));
#136=CARTESIAN_POINT('',(135.,0.,21.6));
#137=CARTESIAN_POINT('',(0.,0.,55.6));
#138=CARTESIAN_POINT('',(0.,0.,55.6));
#139=CARTESIAN_POINT('',(-110.,0.,55.6));
#140=CARTESIAN_POINT('',(0.,0.,21.6));
#141=CARTESIAN_POINT('',(0.,0.,-17.4423728813559));
#142=MECHANICAL_DESIGN_GEOMETRIC_PRESENTATION_REPRESENTATION('',(#78),#143);
#143=(
GEOMETRIC_REPRESENTATION_CONTEXT(3)
GLOBAL_UNCERTAINTY_ASSIGNED_CONTEXT((#144))
GLOBAL_UNIT_ASSIGNED_CONTEXT((#147,#146,#145))
REPRESENTATION_CONTEXT('SN A 6200 RD','TOP_LEVEL_ASSEMBLY_PART')
);
#144=UNCERTAINTY_MEASURE_WITH_UNIT(LENGTH_MEASURE(0.005),#147,
'DISTANCE_ACCURACY_VALUE','Maximum Tolerance applied to model');
#145=(
NAMED_UNIT(*)
SI_UNIT($,.STERADIAN.)
SOLID_ANGLE_UNIT()
);
#146=(
NAMED_UNIT(*)
PLANE_ANGLE_UNIT()
SI_UNIT($,.RADIAN.)
);
#147=(
LENGTH_UNIT()
NAMED_UNIT(*)
SI_UNIT(.MILLI.,.METRE.)
);
#148=PRODUCT_DEFINITION_SHAPE('','',#149);
#149=PRODUCT_DEFINITION('','',#151,#150);
#150=PRODUCT_DEFINITION_CONTEXT('',#157,'design');
#151=PRODUCT_DEFINITION_FORMATION_WITH_SPECIFIED_SOURCE('','',#153,
 .NOT_KNOWN.);
#152=PRODUCT_RELATED_PRODUCT_CATEGORY('','',(#153));
#153=PRODUCT('SN A 6200 RD','SN A 6200 RD','SN A 6200 RD',(#155));
#154=PRODUCT_CATEGORY('','');
#155=PRODUCT_CONTEXT('',#157,'mechanical');
#156=APPLICATION_PROTOCOL_DEFINITION('international standard',
'automotive_design',2010,#157);
#157=APPLICATION_CONTEXT(
'core data for automotive mechanical design processes');
ENDSEC;
END-ISO-10303-21;
